Oops, an error
Loading. Please wait.

Onward tab

847 views 21 this week
no commentswrite comment
1 2 3 4 5
2 more votes to show rating
add to favorites
×
Save as Personal and add changes to this tab that will be seen only by you. Learn more ›
×
You can save this tab as Personal to edit and correct it or add notes. All changes will be seen only by you. Learn more »
launch autoscroll
font size
0
reset
how to read this tab
guitar tuner
edit
Autoscroll
slow
fast
+/-
esc
set tempo
stop
Author
Difficulty
Tab source: blueguitar.info

Onward

By:     Mark Kozelek (originally by Yes)
Album:  Like Rats 


Tuning: Celtic (DADGAD) (Tuned down to A#,F,A#,D#,F,A#)


[Intro/Verse]

D|---0--0--0--0--0--0--0--0--0--0--0--0--0--0--0--0-|
A|--0--0--0--0--0--0--0--0--0--0--0--0--0--0--0--0--|
G|----------2-----2-----2-----------4-----4-----4---|
D|-------4-----4-----4-----------0-----0-----0------|
A|----0-----------------------0---------------------|
D|-0-----------------------5------------------------|


[Chorus]

D|---0--0--0--0--0--0--0--0--0--0--0--0--0--0--0--0-|
A|--0--0--0--0--0--0--0--0--0--0--0--0--0--0--0--0--|
G|----------6-----6-----6-----------4-----4-----4---|
D|-------7-----7-----7-----------5-----5-----5------|
A|----7-----------------------5---------------------|
D|-7-----------------------5------------------------|


[Verse]

Contained everything i do
There's a love 
i feel for you
Proclaimed everything i write
your the light burning bright-ly


[Chorus]

Onward, through the night
Onward, through the night
Onward, through the night
of my life


[Verse]

Displayed in all the things I see
There's alot 
you show to me
portrayed in all the things you say
your the day 
leading the way


[Chorus]

Onward, through the night
Onward, through the night
Onward, through the night
of my life




tabbed by Jeff Mathys (Ghostnote)
jeff_mathys@hotmail.com
Suggest correction
Creating personal tab
Creating personal tab
You can edit any tab online and save it as your Personal.

You can edit, replace or remove any tab part or add personal notes – all changes will be seen only by you.

Personal tabs can be accessed anytime from any device, even offline.
Learn more »
Give kudos to tab author, rate the tab!
1 2 3 4 5
comments
print report bad tab
guest
You may want to rate the tab now too:
select rating
Wanna post a correction for this tab? Suggest correction