Oops, an error
Loading. Please wait.

Eyes Of A Child chords

73 views 6 this week
no commentswrite comment
1 2 3 4 5
3 more votes to show rating
add to favorites
×
Save as Personal and add changes to this tab that will be seen only by you. Learn more ›
×
You can save this tab as Personal to edit and correct it or add notes. All changes will be seen only by you. Learn more »
launch autoscroll
font size
0
reset
transpose
0
reset
simplify chords
display chords
guitar tuner
edit
Autoscroll
slow
fast
+/-
esc
set tempo
stop
Author
Strumming
There is no strumming pattern for this song yet. and get +5 IQ
MARK LANEGAN - EYES OF A CHILD

album version - THE WINDING SHEET
___________________________________
___________________________________

[CHORDS]

   E  G  A  A6sus2 A6sus2/E Em  Am  A* A7 C
e|-0--3--0----2-------2------0--0---5--3--0--|
b|-0--0--2----0-------0------0--1---2--2--1--|
g|-1--0--2----2-------0------0--2---2--2--2--|
d|-2--0--2----2-------2------2--2---2--2--2--|
a|-2--2--0----0-------2------2--0---0--0--0--|
e|-0--3---------------0------0---------------|
_________________________________________________


[INTRO]

e|---------------------------------------7---7---7---7-----|
b|-----------------------------------------5---5---5---5---|
g|---------------------------------------------------------|
d|---------------------------------------------------------|
a|---------------------------------------------------------|
e|-5-3-0--0-0--5-3-0--0-0--0-0--0-0--0-0-------------------|


[VERSE ONE]

E                         G
See through the eyes of a child
       A        E
And it won't be real
                        G
Eyes neither hateful or cruel
   A        E
No lies conceal
          G       A            E
Eyes that wander, eyes that strayed
          G             A
While the shame in your heart
  E
Remains


[INTERLUDE]
 
A6sus2 A6sus2/E A6sus2 Em 
Am Em E


[VERSE TWO]

E                         G
Cryin' were the eyes of a child
   A       E
In pain, tonight tears that I bled on you
                     G        A       E
From the heart of an angel of fear, tonight
       G                E
We can wander, we could stray
        G     A
But the shame 
  E
remains


[INTERLUDE]

A6sus2 A6sus2/E A* A7 
A6sus2 A6sus2/E C Em 
A7 E


[VERSE THREE]

E                         G
See through the eyes of a child
       E        E
And it won't be real
                                          G
I have loved your eyes neither hateful or cruel
   A        E
No lies conceal
         G       A  Am    E
We could wander, we could stray
        G     A       E
But the shame   has remained
E
Has remained
E
It has remained
Suggest correction
Creating personal tab
Creating personal tab
You can edit any tab online and save it as your Personal.

You can edit, replace or remove any tab part or add personal notes – all changes will be seen only by you.

Personal tabs can be accessed anytime from any device, even offline.
Learn more »
Give kudos to tab author, rate the tab!
1 2 3 4 5
comments
print report bad tab
guest
You may want to rate the tab now too:
select rating
Wanna post a correction for this tab? Suggest correction