Oops, an error
Loading. Please wait.

Judas Touch chords

394 views 1 this week
no commentswrite comment
1 2 3 4 5
3 more votes to show rating
add to favorites
×
Save as Personal and add changes to this tab that will be seen only by you. Learn more ›
×
You can save this tab as Personal to edit and correct it or add notes. All changes will be seen only by you. Learn more »
launch autoscroll
font size
0
reset
transpose
0
reset
display chords
guitar tuner
edit
Autoscroll
slow
fast
+/-
esc
set tempo
stop
Author
Strumming
There is no strumming pattern for this song yet. and get +5 IQ
Riff 1
Put out the lions and close the door...
---------------------------------------------------------------------------|
---------------------------------------------------------------------------|
---------------------------------------------------------------------------|
-----8-------8------8-------8------8-------8------6-------6------6-------6-|
---8-------8------8-------8------8-------8------6-------6------6-------6---|
-6-----6--------6-----6--------6-----6--------4-----4--------4-----4-------|

Riff 2
Flames scare the lions as do their dreams...
---------------------------------------------------------------------------|
---------------------------------------------------------------------------|
-----------------------------------6-------6-------------------------------|
-----8-------8------8-------8----6-------6--------6-------6------6-------6-|
---8-------8------8-------8----4-----4----------6-------6------6-------6---|
-6-----6--------6-----6-----------------------4-----4--------4-----4-------|


Only three chords:
   A# part                G#                     C#
|----------------------|----------------------|---------------------|
|----------------------|----------------------|---------------------|
|----------------------|----------------------|-------6----------6--|
|-------8---------8----|-------6---------6----|-----6----------6----|
|-----8---------8------|-----6---------6------|---4--------4--------|
|---6-------6----------|---4-------4----------|---------------------|

A#
Put out the lights and close the door
G#                     A#
I need you more than I did before
A#
Old Jack's been killed and buried away
G#                   A#
Let's hang a note outside the gate

A#
Flames scare the lines as do their dreams
C#                   G#
That's the way it'll always be
                A#
Better close the door
C#                   G#
That's the way it'll always be
                A#
Better close the door

A#
Some fools forever don't ever ask for much
G#                     A#
With frozen hands come Judas touch
A#
Some towers of fire can be redeemed
G#                      A#
Just let me burn higher worlds away

            
            
Suggest correction
Creating personal tab
Creating personal tab
You can edit any tab online and save it as your Personal.

You can edit, replace or remove any tab part or add personal notes – all changes will be seen only by you.

Personal tabs can be accessed anytime from any device, even offline.
Learn more »
Give kudos to tab author, rate the tab!
1 2 3 4 5
comments
print report bad tab
guest
You may want to rate the tab now too:
select rating
Wanna post a correction for this tab? Suggest correction