Oops, an error
Loading. Please wait.

Kingdoms Of Rain tab

5,644 views 9 this week
6 commentsread comments
1 2 3 4 5
x 3
add to favorites
×
Save as Personal and add changes to this tab that will be seen only by you. Learn more ›
×
You can save this tab as Personal to edit and correct it or add notes. All changes will be seen only by you. Learn more »
launch autoscroll
font size
0
reset
how to read this tab
guitar tuner
edit
Autoscroll
slow
fast
+/-
esc
set tempo
stop
Difficulty
Mark Lanegan - Kingdoms of rain
Tunning: Standard (E-a-d-g-b-e)
Tabbed By: Richard Rivera (richard0195@yahoo.com)

|-----------------------------------------------------------|
|-----------------------------------------------------------|
|-----6-----6-----------------------------------------------|
|---6-----6-------6-----6-----------------------------------| (play 3x)
|-4-----4-------4-----4-------------------------------------|
|-------------0-----0---------------------------------------|

|-----------------------------------------------------------|
|-----------------------------------------------------------|
|-----4-----4-----------------------------------------------|
|---4-----4-------4-----4-----------------------------------| (play once)
|-2-----2-------2-----2-------------------------------------|
|-------------0-----0---------------------------------------|

|-----------------------------------------------------------|
|-----------------------------------------------------------|
|-----6-----6-----------------------------------------------|
|---6-----6-------6-----6-----------------------------------| (play 2x)
|-4-----4-------4-----4-------------------------------------|
|-------------0-----0---------------------------------------|

|-----------------------------------------------------------|
|-----------------------------------------------------------|
|-----4-----4-----------------------------------------------|
|---4-----4-------4-----4-----------------------------------| (play once)
|-2-----2-------2-----2-------------------------------------|
|-------------0-----0---------------------------------------|


Chours:
|--------------------------------------------------------------------------|
|--------------------------------------------------------------------------|
|-----6-----6-----6-----6------4-----4-----4-----4-------------------------|
|---6-----6-----6-----6------4-----4-----4-----4------4-----4-----4-----4--| (play once)
|-4-----4-----4-----4------2-----2-----2-----2------2-----2-----2-----2----|
|-------------------------------------------------0-----0-----0-----0------|
Suggest correction
Creating personal tab
Creating personal tab
You can edit any tab online and save it as your Personal.

You can edit, replace or remove any tab part or add personal notes – all changes will be seen only by you.

Personal tabs can be accessed anytime from any device, even offline.
Learn more »
Give kudos to tab author, rate the tab!
1 2 3 4 5
comments
print report bad tab
6 comments total. Showing first comments.
0 reply
remoweirdo 74 Apr 14, 2008 10:35 AM

I think the verse goes:
e|-------------------------------------------
B|-------------------------------------------
G|----6----6-------------4----4--------------
D|--6----6----6----6----4----4----4----4-----
A|4-----4----4----4----2----2----4----4------
E|----------0----0--------------2----2-------

x3

0 reply
cmeenzen 295 Sep 24, 2014 04:30 AM

Are those halos in your hair
Or diamonds shining there
Without a hope, without a prayer
This rain beats down like death
You turn your eyes to better men
Before I go I'll hang in a cross on nails
I hung on for you in there

Girl lay your shame to rest
Hope lies close to your breast
You stoop to feed the crows
Some scraps of truth already cold
Before I go, I'll hang in a cross on nails
I hung on for you in there
And every kingdom of rain comes fallin' down
Cause I loved you somewhat
Cause I loved you somewhat

Would you put halos in your hair
Without a hope without a prayer
With lies close to your breast
You finally lay your shame to rest
Before I go, I'll hang in a cross on nails
I hung on for you in there
And every kingdom of rain comes fallin' down
Cause I loved you so long
cause I loved you so long
Cause I loved you so long

0 reply
piroxiline 10 Oct 22, 2016 07:37 AM, edited at 11:56 am

Correct chorus:
better man...|-------------------------|-------------------------|-----6-----6-----6-----6-|---6-----6-----6-----6---|-4-----4-----4-----4-----|-------------------------
Before I go, I... .... nail ... I|------------------------------------------------|------------------------------------------------|-----------------4-----4------------------------|-----6-----6---4-----4-------4-----4-----4-----4|---4-----4---2-----2-------4-----4-----4-----4--|-0-----0-----------------2-----2-----2-----2----
hung on for you in there|------------------------|------------------------|-----6-----6-----6-----6|---6-----6-----6-----6--|-4-----4-----4-----4----|------------------------
And every kingdom of rain comes fallin' down ... CauseSee 'B'Ant then:Cause I loved you somewhat
|------------------------||------------------------||-----6-----6------------||---6-----6-------6-----6| (x times needed into Verse)|-4-----4-------4-----4--||-------------0-----0----|

guest
Wanna post a correction for this tab? Suggest correction