Oops, an error
Loading. Please wait.

Shooting Gallery tab

368 views 3 this week
no commentswrite comment
1 2 3 4 5
1 last vote to show rating
add to favorites
×
Save as Personal and add changes to this tab that will be seen only by you. Learn more ›
×
You can save this tab as Personal to edit and correct it or add notes. All changes will be seen only by you. Learn more »
launch autoscroll
font size
0
reset
how to read this tab
guitar tuner
edit
Autoscroll
slow
fast
+/-
esc
set tempo
stop
Author
INTRO:
    G            D          G            D
E|----------3------2---2------------3------2---2----------|
B|--------3-3------3-3-3----------3-3------3-3-3----------|
G|--0-0-0-0-0----2-2-2-2----0-0-0-0-0----2-2-2-2----------|
D|--0-0-0-0-0----0---0------0-0-0-0-0----0---0------------| (x2)
A|--2-2-2-------------------2-2-2-------------------------|
E|--3-----------------------3-----------------------------|
                Oh...                   Oh...
 
(part below is played at various points throuout the song)
                   D                       D
E|--------0------------2----------0------------2----------|
B|----------0---0--3-3-3------------0---0--3-3-3----------|
G|------0-----0----2-2-2--------0-----0----2-2-2----------|
D|----3------------0----------3------------0--------------|
A|--2-----------------------2-----------------------------|
E|--------------------------------------------------------|
 
   (---- fill 1 ---)        G
E|--------------------------3--3--------------------------|
B|--------------------------------3--3--------------------|
G|--------------------------0--0--------------------------|
D|--------------------------------0--0--------------------|
A|--7b8--5---4b5--0---------2--2--2--2--------------------|
E|--------------------------3--3--3--3--------------------|
 
G                                  Dsus2  (fill 1)
I'll tell you how I woke up on the line
G                         Dsus2  (fill 1)
Her sister almost saw the light
G
Look, my hands are tied
C                       G
I'll see you in another hallway
           Dsus2
Some other time
 
SOLO(not tabbed): (2nd guitar can play part below during solo)
E|----0------0------0-----0------0------0-----------------|
B|------3------3------------3------3----------------------|
G|--------2------2------------2------2--------------------|
D|--0-------------------0---------------------------------|
A|--------------------------------------------------------|
E|--------------------------------------------------------|
 
And I don't understand this big parade
It's a five-star decoration day
Look my hands are stained
I was washing them in the water
Well the water fell away
 
I'll tell you how I woke up on the line
Saw every soul in heaven passing by
Look, my hands are tied
I'll see you in another station
Some other time

            
            
Suggest correction
Creating personal tab
Creating personal tab
You can edit any tab online and save it as your Personal.

You can edit, replace or remove any tab part or add personal notes – all changes will be seen only by you.

Personal tabs can be accessed anytime from any device, even offline.
Learn more »
Give kudos to tab author, rate the tab!
1 2 3 4 5
comments
print report bad tab
guest
You may want to rate the tab now too:
select rating
Wanna post a correction for this tab? Suggest correction