Oops, an error
Loading. Please wait.

Undertow chords

version 2
version 2

Whole song

180 views 1 this week
no commentswrite comment
1 2 3 4 5
3 more votes to show rating
add to favorites
×
Save as Personal and add changes to this tab that will be seen only by you. Learn more ›
×
You can save this tab as Personal to edit and correct it or add notes. All changes will be seen only by you. Learn more »
launch autoscroll
font size
0
reset
transpose
0
reset
display chords
guitar tuner
edit
Autoscroll
slow
fast
+/-
esc
set tempo
stop
Author
Difficulty
Tabbers playing skills
intermediate ++
Strumming
There is no strumming pattern for this song yet. and get +5 IQ
-------------------------------------------------------------------------------
                             UNDERTOW - Mark Lanegan
-------------------------------------------------------------------------------
Tabbed by: brian_s
E-mail: bsremec@unseen.is

Tuning: EADGBe

Intro:
e|---------------------------------------------------------------------------|
B|-------0-----------0-----------0-----------0-------------------------------|
G|---------3---3---3---3-----------1---1---1---1-----------------------------|
D|-----4-----4---4-------4-----2----2----2-------2---------------------------|
A|---------------------------------------------------------------------------|
E|---2-----------------------0-----------------------------------------------|

1st Verse:
E
Water will forgive me, I'm just tryin' to forget
E
Starin' at the water as the waves turn ruby red
E
Remembering

Post verse doodle:
    F#    F#   F#   F#   F#   F#      E    E    E    E    E 
e|---------------------------------------------------------------------------|
B|------11-----11-----12p11---11--------9----9----9------9-------------------|   play 2x
G|--------11-----11--------11---11--------9----9-----9-----9-----------------|
D|---11-----11-----11-------------11--9-----9----9-----9-----9---------------|
A|---------------------------------------------------------------------------|
E|---------------------------------------------------------------------------|

2nd Verse:
E
Fear and paranoia run together in my dreams
E
Water will accept me give me a peace I've never seen
E
Remembering

Post verse doodle:
Same as above

Chorus:
A              E
Wrap your arms around me
A                   E
And I'm as light as anything
A                       E       
Through the air I can't breathe
A                       E
Your lips form a curious smile

Post verse doodle:
Same as above

3rd verse:
E
Water will forgive me for everything I never should
E
Water will accept me for all the things I never could

Post verse doodle:
Same as above

Chorus:
A              E
Wrap your arms around me
A                   E
And I'm as light as anything
A          E
mmmmmmmmmmmmmmm



************************************

| p   pull-off

************************************
Suggest correction
Creating personal tab
Creating personal tab
You can edit any tab online and save it as your Personal.

You can edit, replace or remove any tab part or add personal notes – all changes will be seen only by you.

Personal tabs can be accessed anytime from any device, even offline.
Learn more »
Give kudos to tab author, rate the tab!
1 2 3 4 5
comments
print report bad tab
guest
You may want to rate the tab now too:
select rating
Wanna post a correction for this tab? Suggest correction