Oops, an error
Loading. Please wait.

Pandoras Bottle Tab

7 views 1 this week
no commentswrite comment
1 2 3 4 5
2 more votes to show rating
add to favorites
launch autoscroll
font size
0
reset
how to read this tab
guitar tuner
Autoscroll
slow
fast
+/-
esc
set tempo
stop
Help us to improve Ultimate-Guitar.com Take our survey!
×
Author
Difficulty
intermediate
About this tab version
Electric guitar on the original recording is likely capoed at the 5th fret. This version is not capoed for ease of play. Guitar/Piano compliment each other on the original recording. This version includes both tab and chords so that the player can select parts depending on whether playing alone or accompanied by piano. Was this info helpful? Yes No
-------------------------------------------------------------------------------
                        Pandora's Bottle - Mark Mallman
-------------------------------------------------------------------------------
Tabbed by:Hanoihancock
Tuning:Standard Tuning (EADGBe)

C: x32010  Cmaj7/B: x22010  Am: x02210  C6/G: 3x2010  Em: 022000  F: x33211  G: 320003 G7: 320001 G: 3x003x

[C-to-G Riff] (Occurs twice each verse between C and G)
e|-0--0h1-3-|-3--1--|
B|-1--------|----0--|
G|-0--------|----0--|
D|-2--------|----0--|
A|-3--------|----2--|
E|----------|-3--3--|

[Fingerpicking Guitar Chorus] (Can be played in lieu of chorus chords entirely)    
e|-0-----0-----|-0-----0-----|-0----0-----|-0---0-----|-1-1-|-x-x-|-0--0h1-3-|-3--1--|
B|---------1---|---------1---|--------1---|-------3-1-|-1-1-|-3-3-|-1--------|----0--|
G|-----0-----0-|-----0-----0-|-----2----2-|-----------|-2-2-|-0-0-|-0--------|----0--|
D|---2---------|---2---------|---2--------|---2-------|-3-3-|-0-0-|-2--------|----0--|
A|-3-----------|-2-----------|-0----------|-----------|-3-3-|-x-x-|-3--------|----2--|
E|-------------|-------------|------------|-0---------|-x-x-|-3-3-|----------|-3--3--|

e|-0-----0-----|-0-----0-----|-0----0-----|-0---0-----|-1-1-|-x-x-|-3p0--3p0--|-3p0--3p0--|-3p0--------------|
B|---------1---|---------1---|--------1---|-------3-1-|-1-1-|-3-3-|----3----3-|----3----3-|-----1-0---0-1-3--|
G|-----0-----0-|-----0-----0-|-----2----2-|-----------|-2-2-|-0-0-|-----------|-----------|---------2--------|
D|---2---------|---2---------|---2--------|---2-------|-3-3-|-0-0-|-----------|-----------|-----3------------|
A|-3-----------|-2-----------|-0----------|-----------|-3-3-|-x-x-|-3----2----|-0---------|------------------|
E|-------------|-------------|------------|-0---------|-x-x-|-3-3-|-----------|------3----|-----------3------|

[Fingerpicking Guitar Intro/Outro] (Occurs at the Intro, end of each Chorus, and twice at the end of the song)
e|--3p0--3p0--|-3p0--3p0--|-3p0--------------|
B|-----3----3-|----3----3-|-----1-0---0-1-3--|
G|------------|-----------|---------2--------|
D|------------|-----------|-----3------------|
A|--3----2----|-0---------|------------------|
E|------------|------3----|-----------3------|

[Verse 1]
N.C.      C    Cmaj7/B    Am  C6/G  F                  G        G7         C (Riff) G G7
I bought half a case  of wine         three sweet and white three red and dry

          C       Cmaj7/B     Am   C6/G  F                  G   G7        C  (Riff) G G7
I had a real nice  time last night         it's been so lonesome   in my life

[Chorus 1]
             C          Cmaj7/B       Am         Em  F                       G     G7    C         (Riff) G G7
There are stronger men, richer men, miracle men         you could have your pick of any one of them

          C             Cmaj7/B                 Am                    Em          F
but whatever becomes, I stick to my guns, there certainly weren't any luckier ones

             G    G7       (Fingerpicking Guitar Intro)
luckier than I was in your arms

[Verse 2]
                C    Cmaj7/B    Am  C6/G  F             G       G7         C (Riff) G G7
I thought I'd write a song for wine         It would be in three-quarter time

          C     Cmaj7/B    Am  C6/G  F               G   G7       C  (Riff) G G7
Instead I wrote a song for you         It's just a single little tune

[Chorus 2]
             C           Cmaj7/B                 Am                    Em                F            G
It's a thank you note.   Something I wrote.   Sometimes emotions get caught in my throat.  I open my mouth

  G7         C              (Riff) G G7
up and the words turn around.

      C                    Cmaj7/B                     Am                                 Em        F
The words can be kind.  The words can confuse.  In the end they're just something that melodies use.  Much

           G  G7         (Fingerpicking Guitar Intro)
like the bottle to the vintage we choose.

[Verse 3]
          C     Cmaj7/B   Am  C6/G  F            G    G7        C  (Riff) G G7
La La  La La   La La   La La          Da Da Da   Da Da   Da Da  Dee

          C       Cmaj7/B  Am   C6/G  F                  G    G7  (Fingerpicking Guitar Outro x 2)
See you again on Saturday night.        We'll split a bottle of 2003.

***********************************
| h   Hammer-on
| p   Pull-off
| x   Dead note
***********************************
Suggest correction
Give kudos to tab author, rate the tab!
1 2 3 4 5
comments
print report bad tab
guest
You may want to rate the tab now too:
select rating
Wanna post a correction for this tab? Suggest correction