Oops, an error
Loading. Please wait.

Stop Me bass

version 2
version 2

Whole song

Interactive

1,397 views 1 this week
3 commentsread comments
1 2 3 4 5
1 last vote to show rating
add to favorites
×
Save as Personal and add changes to this tab that will be seen only by you. Learn more ›
×
You can save this tab as Personal to edit and correct it or add notes. All changes will be seen only by you. Learn more »
launch autoscroll
font size
0
reset
guitar tuner
edit
Autoscroll
slow
fast
+/-
esc
set tempo
stop
Author
Difficulty
personally i think mark ronson played this song better than the smiths version 
any way here it is

Intro: 0:35
G------------------55----55--7---8---10-------------------------------------|
D----66-----66----5--5---------------------66-----66------------------------|
A---6--6---6--6-3------3---5---6---8------6--6---6--6--55555555-------------|
E3>4------4------------------------------4------4----------------44444444---|

Main Riff:-
G---------------------------------------------------------------------------|
D---------------------------------------------------------------------------|
A-3--33-4-5--55-h6--66-h7-8---88--------------------------------------------|
E---3-------5------6---------8----------------------------------------------|
3rd to 5th to 6th to 8th on the A string are the core notes but on the song its 
a bit fiddley.

Chorus: -

|----------------------JUST PLAY THE INTRO AGAIN----------------------------|


thats about it really just listen 2 the song

            
            
Suggest correction
Creating personal tab
Creating personal tab
You can edit any tab online and save it as your Personal.

You can edit, replace or remove any tab part or add personal notes – all changes will be seen only by you.

Personal tabs can be accessed anytime from any device, even offline.
Learn more »
Give kudos to tab author, rate the tab!
1 2 3 4 5
comments
print report bad tab
3 comments total.
0 reply
Aguero 70 Jan 09, 2008 04:37 AM

Man this is so wrong, i'm probably going to tab my own to be honest, but here are the opening
riffs;

|-----------------------------------5---5-----55--77--88--1010-|
|-------6---6--------6--6--6-------5---5--55
-------------------|
|------6---6--66----6--6----6---3------------3---5---6---8-----|
|-1h4------------4------------4-
-------------------------------|

|------------------------------------------------------------|
|-------6---6-------
-6--6--6---------------------------------|
|------6---6--66----6--6----6--------------------------------|
|-1h4-------
-----4------------4-6-6-6-6-6-6-6-6-3-3-3-3-3--3-|

0 reply
Aguero 70 Jan 09, 2008 04:38 AM

**** sake, lol.

|-----------------------------------5---5-----55--77--88--1010-|
|-------6---6--------6--6--6-------5---5--55-------------------|
|------6---6--66----6--6----6---3------------3---5---6---8-----|
|-1h4------------4------------4--------------------------------|



|------------------------------------------------------------|
|-------6---6--------6--6--6---------------------------------|
|------6---6--66----6--6----6--------------------------------|
|-1h4------------4------------4-6-6-6-6-6-6-6-6-3-3-3-3-3--3-|

0 reply
Aguero 70 Jan 09, 2008 04:39 AM

bottom one without the 1 high to 4 of course.

guest
You may want to rate the tab now too:
select rating
Wanna post a correction for this tab? Suggest correction