Oops, an error
Loading. Please wait.

Dont Laugh At Me tab

5,453 views 1 this week
no commentswrite comment
1 2 3 4 5
x 6
add to favorites
×
Save as Personal and add changes to this tab that will be seen only by you. Learn more ›
×
You can save this tab as Personal to edit and correct it or add notes. All changes will be seen only by you. Learn more »
launch autoscroll
font size
0
reset
how to read this tab
guitar tuner
edit
Autoscroll
slow
fast
+/-
esc
set tempo
stop
tabbed by: not Alen Thack

Capo III
intro:
   D             Bm            G             A 
|--2--2--0-------2--2--0-------3--3----------0--------2--0--------------|
|--3--------3----3--------3----0-----3—0-----2--0--2--------------------|
|--2-------------4-------------0-------------2--------------------------|
|--0-------------4-------------0-------------2--------------------------|
|-----------------------------------------------------------------------|
|-----------------------------------------------------------------------|

       D                                                        
|------2------------0-----------0--------------0------------------------|
|------3-------3----------3--------------3----------3-------------------|
|------2---------------2------------2-------------------2---------------|
|------0----------------------------------------------------------------|
|-----------------------------------------------------------------------|
|-----------------------------------------------------------------------|
I'm a little boy with glasses, the one they call the geek

          Bm 
|---------2-------------0-------------0--------------0------------------|
|---------3--------3-------------3--------------3---------3-------------|
|---------4-----------------4--------------4-------------------4--------|
|---------4-------------------------------------------------------------|
|-----------------------------------------------------------------------|
|-----------------------------------------------------------------------|
A little girl who never smiles cause I have got braces on my teeth

   G                                           A   
|--------3---------3----------3----------3----------0---------0---------2-0|
|-----0-----0---0-----0----0-----0----0-----0----2-----2----2------0--2----|
|--0-----------------------------------------------------2-----------------|
|-------------4----------2----------0---------2------------------2---------|
|--------------------------------------------------------------------------|
|--------------------------------------------------------------------------|
And I  know   how it  feels   to cry myself to sleep

         D                                                        
|--------2------------0-------------0---------------0-------------------|
|--------3-------3------------3---------------3----------3--------------|
|--------2----------------2-------------2--------------------2----------|
|--------0--------------------------------------------------------------|
|-----------------------------------------------------------------------|
|-----------------------------------------------------------------------|
I'm that kid on every playground who's always chosen last

         Bm 
|---------2-------------0-------------0--------------0------------------|
|---------3--------3-------------3--------------3---------3-------------|
|---------4---------------4----------------4-------------------4--------|
|---------4-------------------------------------------------------------|
|-----------------------------------------------------------------------|
|-----------------------------------------------------------------------|
    A single  teenage  mother  tryin'  to  overcome my past

       G                                          A 
|------------3---------3----------3----------3----------0--------|
|---------0-----0---0-----0----0-----0----0-----0----2-----2-----|
|------0-----------------------------------------------------2---|
|-----------------4----------2----------0---------2--------------|
|----------------------------------------------------------------|
|----------------------------------------------------------------|
You don't have to be my friend,   is it too much to ask

Chorus:

 A(hold from verse) D                Bm 
|-------------------2-------2---------2---------2----------------|
|-------------------3----3-----3------3----3---------3-----------|
|-------------------2-------------2---4-------------------4------|
|-------------------0-----------------4--------------------------|
|----------------------------------------------------------------|
|----------------------------------------------------------------|
Don't   laugh  at   me, don't call me names, Don't get your

   G                    A                   D
|--3-------3------------0-------0-----------2-------2------------|
|--0---0-------0--------2---2-------2-------3---3-------3--------|
|--0---------------0----2---------------2---2----------------2---|
|--0--------------------2-------------------0--------------------|
|----------------------------------------------------------------|
|----------------------------------------------------------------|
   pleasure  from  my  pain.    In  Gods  eyes  we're  all  the 

   Bm                   G                   A 
|--2-------2------------3-------3-----------0--------------------|
|--3---3-------3--------0---0-------0-------2--------------------|
|--4----------------4---0---------------0---2--------------------|
|--4--------------------0-------------------2--------------------|
|----------------------------------------------------------------|
|----------------------------------------------------------------|
  Same.  Someday we'll all  have  perfect  wings.

(Hold A)         D           Bm          G          A     
|-----3--2--3----2--2--0-----2--2--0-----3--3-------0--------2--0-|
|----------------3--------3--3--------3--0-----3—0--2--0--2-------|
|----------------2-----------4-----------0----------2-------------|
|----------------0-----------4-----------0----------2-------------|
|-----------------------------------------------------------------|
  Don't laugh at me

         D 
I'm a cripple on the corner, you've passed me on the street
         Bm 
And I wouldn't be out here beggin' if I had enough to eat
           G                                        A 
And don't think I don't notice that our eyes never meet
          D 
I lost my wife and little boy when someone crossed that yellow line
           Bm 
The day we laid them in the ground is the day I lost my mind
          G                                             A 
And right now I'm down to holdin' this little cardboard sign     So,     

Repeat Chorus: 
 
Bridge:
    G                   A                    G                     A
I'm fat, I'm thin, I'm short, I'm tall, I'm deaf, I'm blind, Hey, aren't we
all

Repeat Chorus: 

            
            
Suggest correction
Creating personal tab
Creating personal tab
You can edit any tab online and save it as your Personal.

You can edit, replace or remove any tab part or add personal notes – all changes will be seen only by you.

Personal tabs can be accessed anytime from any device, even offline.
Learn more »
comments
print report bad tab
guest
Wanna post a correction for this tab? Suggest correction