Oops, an error
Loading. Please wait.

Bog I Hrvati Tab

1 view 1 this week
no commentswrite comment
1 2 3 4 5
3 more votes to show rating
add to favorites
launch autoscroll
font size
0
reset
how to read this tab
guitar tuner
Autoscroll
slow
fast
+/-
esc
set tempo
stop
Help us to improve Ultimate-Guitar.com Take our survey!
×
Author
Difficulty
intermediate
Marko Perković Thompson - Bog i Hrvati


[INTRO] and solos, are keyboards adapted to guitar.



[INTRO]

e |—12--------------------------------------------------------------------|
B |------15---12---------------12-----------------------------------------|
G |------------------10—12-------11------11—12—14--14------12—11—7—9------|
D |-----------------------------------------------------------------------|
A |-----------------------------------------------------------------------|
E |-----------------------------------------------------------------------|

e |—12---------------------------------------------------------------------|
B |------15---12---------------12------------------------------------------|
G |-------------------10—12-------11-----11—12—14—14hb---12-----12—11—7—9--|
D |------------------------------------------------------------------------|
A |------------------------------------------------------------------------|
E |------------------------------------------------------------------------|

[VERSE] 

Em                D        Em
Udijelio Svevišnji Narodu mom,
G        D          Em
najljepšu zemlju pod nebom,
Em            D        Em
prosulo sunce čudesni sjaj,
  G        D         Em
na zemlju što bješe k’o raj,
  C       D          Em
....ooooooo zemlja k’o raj,
  C       G      Em
....ooooooo čudesni sjaj.

Em              D        Em
Prvog nam Kralja pomaza’ Bog,
  G     D          Em 
i dao mu blagoslov Svoj,
  Em                  D       Em                
da vodi svoj Narod kroz trnje i led,
G       D      Em 
zakon da vlada i red,
C      D      Em
ooooooo trnje i led,
C      G      Em
ooooooo zakon i red.


[PRE-CHORUS]

   C                          [Riff 1]
A narod k’o narod lako ga prevari zlo 
C                             H
i komad po komad on gubi to Sveto tlo.


[CHORUS]

           Em             G
Svevišnjeg bijes puče ko grom
C                   A               H
I  zakloni sunce što sjalo je narodu mom.
           Em              G
Svevišnjeg bijes puče ko grom
C             A              H
I nikada, nikada mira u narodu mom.

SOLO 1

e |--------------------------------------------------------------|
B |--------------------------------------------------------------|
G |------------11-12--------11-12-------11-----------------------|
D |-------14-------------14--------------------14---12-----------|
A |-14------------------------------------------------------14---|
E |--------------------------------------------------------------|

e |-------------------------------------------------------------------------------|
B |-------------------------------------------------------------------------------|
G |----------11-12-------11-12----11-12—14—12—11----------------------------------|
D |------14-----------14------------------------------------------14------12-11---|
A |-14----------------------------------------------------------------------------|
E |-------------------------------------------------------------------------------|

e |---------------------------------------------------------------|
B |---------------------------------------------------------------|
G |-----------11-12--------11-12-------11-------------------------|
D |------14-------------14--------------------14---12-------------|
A |-14-----------------------------------------------------14-----|
E |---------------------------------------------------------------|

e |-------------------------------------------------------------------|
B |-------------------------------------------------------------------|
G |----------11-12-------11-12-----11-12—14---12---11-----------------|
D |------14-----------14----------------------------------------14----|
A |-14----------------------------------------------------------------|
E |-------------------------------------------------------------------|


[VERSE]
     Em               D       Em
Kroz bespuća prošlosti trpiše bol,
    G     D       Em
tim putem ih odvede zlo.
  Em        D        Em
ON čeka da čuje molitve glas,
  G      D      Em 
da udijeli nadu i spas.
 

[PRE-CHORUS]

C                           [Riff 1]
A narod k’o narod lako ga prevari zlo 
C                           B
i komad po komad on gubi to Sveto tlo.


[CHORUS]
           Em             G
Svevišnjeg bijes puče ko grom
C                   A               B
I  zakloni sunce što sjalo je narodu mom.
           Em              G
Svevišnjeg bijes puče ko grom
C             A              B
I nikada, nikada mira u narodu mom.



e |-----------------------------------------------------------------|
B |-----------------------------------------------------------------|
G |-4-5------4---4-5----5-------4-4-5------4------------------------|
D |-4-5------4---4-5---5--------4-4-5------4----------4-4/16~-------|
A |-2-3-0—2---2-3-0-3--------2-2-3-0—2----------4-4/16~-------------|
E |--------------------------------------------------------2-2/14~--|




[Riff 2]                  
   "Convertamini..
[Riff 2]
    Convertamini....
[Riff 2]
    In Domino salus popule convertamini
[Riff 2]                              B   [Riff 3]
    In Domino salus popule convertamini"


[BRIDGE]

B                            [Riff 3]
Mačevi su sjekli Anđele i Svece,
B                               [Riff 3]
bune su se gušile krikovima djece,
B                                [Riff 3]
osmanlijsko ropstvo pet stoljeća tuge,
B                                  [Riff 4]
boljševička neman rađala je sluge.
Em                              [Riff 5]
Palile su silne vatre, domove i sela,
Em                [Riff 6]             [Riff 3]
gorjelo je more, kamen, brda, zemlja cijela,

B                       [Riff 3]
probodenih srca i nevine krvi,
B                      B
koji nisu krivi padali su prvi.
    D
Prodane duše za lažni sjaj,
     C
proliše suze zemlji k’o raj...

[Riff 2]
  "Benedictus Sit Dominus Deus...
[Riff 2]
   Benedictus Sit Dominus Deus"
[Riff 2]
               ....Dominus Deus...
[Riff 2]             


SOLO 2

e |-----------------------------------------------|
B |—12-14-15------------12--------12--14---12-----|
G |----------------12—14------14------------------|
D |-----------------------------------------------|
A |-----------------------------------------------|
E |-----------------------------------------------|
                                                                                           
e |---------------------------------12------------|
B |—12-14-15-------------12-------15-14-12--------|
G |----------------12---14------------------------|
D |-----------------------------------------------|
A |-----------------------------------------------|
E |-----------------------------------------------|

e |-----------------------------------------------|
B |—12-14-15------------12--------12--14---12-----|
G |----------------12—14------14------------------|
D |-----------------------------------------------|
A |-----------------------------------------------|
E |-----------------------------------------------|
                                                                                           
e |---------------------------------12------------|
B |—12-14-15-------------12-------15-14-12--------|
G |----------------12---14------------------------|
D |-----------------------------------------------|
A |-----------------------------------------------|
E |-----------------------------------------------|

e |-----------------------------------------------|
B |-----------------------------------------------|
G |---------11-12---------------11------------11--|
D |-----14-----------12—14--------12-----14-----14|
A |-14--------------------------------------------|
E |-----------------------------------------------|

e |----------------------------------------------------|
B |----------------------------------------------------|
G |-----------11-12--------------11----14---12-11------|
D |------14-----------12—14------------------------14--|
A |-14-------------------------------------------------|
E |----------------------------------------------------|

e |----------------------------------------------------|
B |----------------------------------------------------|
G |---------11-12---------------11---------------11----|
D |-----14-----------12—14--------12-----14------14----|
A |-14-------------------------------------------------|
E |----------------------------------------------------|

e |----------------------------------------------------|
B |----------------------------------------------------|
G |-----------11-12--------------11----14---12-11------|
D |------14-----------12—14------------------------14--|
A |-14-------------------------------------------------|
E |----------------------------------------------------|


[BRIDGE]

C        D         Em
Gospine suze brisao Bog:
C         D               Em
"Ne plači Kraljice Naroda Mog,
C           D            Em
nek' odbace zlo u duboki vir,
C         D                   B
vratit ću Zemlju i dat ću im Mir"


[CHORUS]
           Em             G
Svevišnjeg bijes puče ko grom
C                   A               B
I  zakloni sunce što sjalo je narodu mom.
           Em              G
Svevišnjeg bijes puče ko grom
C             A              B
I nikada, nikada mira u narodu mom.

SOLO 3
e |---------------------------------------------------------------|
B |---------------------------------------------------------------|
G |------------11-12--------11-12-------11------------------------|
D |-------14-------------14--------------------14---12------------|
A |-14------------------------------------------------------14----|
E |---------------------------------------------------------------|

e |--------------------------------------------------------------------------|
B |--------------------------------------------------------------------------|
G |----------11-12-------11-12----11-12—14—12—11-----------------------------|
D |------14-----------14--------------------------------------14------12-11--|
A |-14-----------------------------------------------------------------------|
E |--------------------------------------------------------------------------|

e |-----------------------------------------------------------|
B |-----------------------------------------------------------|
G |-----------11-12--------11-12-------11---------------------|
D |------14-------------14--------------------14---12---------|
A |-14-----------------------------------------------------14-|
E |-----------------------------------------------------------|

e |-----------------------------------------------------------|
B |-----------------------------------------------------------|
G |----------11-12-------11-12-----11-12—14---12---11---------|
D |------14-----------14--------------------------------------|
A |-14--------------------------------------------------------|
E |-----------------------------------------------------------|

e |-----------------------------------------------------------------------------------------|
B |-------15-13-15-------16-15-16----13---15—16---15-16-15-13-------------------------------|
G |-12----------------12----------------------------------------------------------15-14-----|
D |-----------------------------------------------------------------------------------------|
A |-----------------------------------------------------------------------------------------|
E |-----------------------------------------------------------------------------------------|

e |--------------------------------------------------------------------------|
B |------15-13-15------16-15-16-----13-15-13---------------------------------|
G |-12--------------12----------------------------------15-14-15-12----------|
D |--------------------------------------------------------------------------|
A |--------------------------------------------------------------------------|
E |--------------------------------------------------------------------------|

e |----------------------------------------13---15-13-----------------------------------|
B |-------15-13-15------16-15-16-------------------16—15-16-15-13-----------------------|
G |-12---------------12----------------------------------------------------------15-14--|
D |-------------------------------------------------------------------------------------|
A |-------------------------------------------------------------------------------------|
E |-------------------------------------------------------------------------------------|

e |-------18-17-18--------20-18-20----18-17-15-13-15-17---15—15—13-------------------|
B |-15----------------15-------------------------------------------------------------|
G |----------------------------------------------------------------------------------|
D |----------------------------------------------------------------------------------|
A |----------------------------------------------------------------------------------|
E |----------------------------------------------------------------------------------|

e |----------------------------------------------------------------|
B |----------------------------------------------------------------|
G |------------11-12--------11-12-------11-------------------------|
D |-------14-------------14--------------------14---12-------------|
A |-14------------------------------------------------------14-----|
E |----------------------------------------------------------------|

e |-------------------------------------------------------------------------------|
B |-------------------------------------------------------------------------------|
G |----------11-12-------11-12----11-12—14—12—11----------------------------------|
D |------14-----------14--------------------------------------14------12-11-------|
A |-14----------------------------------------------------------------------------|
E |-------------------------------------------------------------------------------|

e |---------------------------------------------------------------|
B |---------------------------------------------------------------|
G |-----------11-12--------11-12-------11-------------------------|
D |------14-------------14--------------------14---12-------------|
A |-14-----------------------------------------------------14-----|
E |---------------------------------------------------------------|

e |------------------------------------------------------------------------------------------------|
B |------------------------------------------------------------------------------------------------|
G |----------11-12-------11-12-----11-12—14---12---11--- -------14---12---11-----------------------|
D |------14-----------14------------------------------------------14---------------------14--------|
A |-14---------------------------------------------------------------------------------------------|
E |------------------------------------------------------------------------------------------------|



[VERSE]

Em            D       Em
Usliši molitve narodu Bog,
G   D        Em
ugasi vatru i dim,
Em             D      Em
vrati joj staru slavu i sjaj,
G         D       Em
Zemlji što bješe k’o raj.

Em                D          Em
Al' opet se nad nas nadvilo zlo,
G      D        Em
vreba i čeka svoj čas.
Em           D          Em
Čuje li Narod povijesti glas,
G     D            Em
"samo u Bogu je ....spas". 


[Riff 1]

e |----------------------------------------------------------------|
B |----------------------------------------------------------------|
G |--------------9---11---12--------------------12---11---9--------|
D |-2-2—2-2---------------------2-2—2-2----------------------------|
A |-2-2—2-2---------------------2-2—2-2----------------------------|
E |-0-0—0-0---------------------0-0—0-0----------------------------|


[Riff 2]

e |------------------------------------------------------------------|
B |------------------------------------------------------------------|
G |------------------------------------------------------------------|
D |-4-2-4-4-4---4-2-4-4-4---4-2-4-4-4---4-2—5—4—2--------------------|
A |-4-2-4-4-4---4-2-4-4-4---4-2-4-4-4---4-2—5—4—2--------------------|
E |-2-0-2-2-2---2-0-2-2-2---2-0-2-2-2---2-0—3—2—0--------------------|
     x x x x x    x x x x x     x x x x x      x x

[Riff 3]

e |----------------|
B |----------------|
G |----------------|
D |----------------|
A |-0-2-3—0--------|
E |----------------|

[Riff 4]

e |--------------------------------|
B |--------------------------------|
G |--------------------------------|
D |---9---7---5---4---5—4----------|
A |---9---7---5---4---5—4----------|
E |---7---5---3---2---3—2----------|

[Riff 5]

e |---------------------|
B |---------------------|
G |---------------------|
D |---------------------|
A |-5-7-8—5-------------|
E |---------------------|

[Riff 6]

e |-----------------------------|
B |-----------------------------|
G |---10--9---7---5---4---------|
D |---10--9---7---5---4---------|
A |---8---7---5---3---2---------|
E |-----------------------------|


************************************
 
\ / = slide
~ = vibrato
hb = halfband
x = palm mute

************************************
Suggest correction
Give kudos to tab author, rate the tab!
1 2 3 4 5
comments
print report bad tab
guest
You may want to rate the tab now too:
select rating
Wanna post a correction for this tab? Suggest correction