Oops, an error
Loading. Please wait.

Nuotando Nellaria tab

version 1
version 1

Whole song

Interactive

1,084 views 27 this week
no commentswrite comment
1 2 3 4 5
3 more votes to show rating
add to favorites
×
Save as Personal and add changes to this tab that will be seen only by you. Learn more ›
×
You can save this tab as Personal to edit and correct it or add notes. All changes will be seen only by you. Learn more »
launch autoscroll
font size
0
reset
how to read this tab
guitar tuner
edit
Autoscroll
slow
fast
+/-
esc
set tempo
stop
Author
NUOTANDO NELL’ARIA - MARLENE KUNTZ


[Intro]

E - G# - A

e|-----------------------------------------------------------------------------||
B|-----------------------------------------------------------------------------||
G|-----------------------------------------------------------------------------||
D|---------------------------------------------------4-4-4-4------------(6-6)--||
A|---2/6/2---2---2---------7/6---2---2---------7-6-0-6-6-6-6---7-6--4-4-(4-4)--||
E|-0-------0---0---0-0-0-0-----0---0---5-5-5-4---------------5-----------------||


[Verse]

E
Pelle: è la tua proprio quella che mi manca
G#
in certi momenti e in questo momento
A  E  G#  A
è la tua pelle ciò che sento nuotando nell’aria.
E  G#
Odori dell’amore nella mente dolente, tremante, ardete:
A
il cuore domanda cos’è che manca
E  G#
perché si sente male, molto male,
A
amando, amando, amandoti ancora.

 E  G#  A  E  G#  A
e|------------------------------------------------------------------------------------||
B|---------------------------------------------------------------------------------10-||
G|------------------------------------9^---------------------------11-11-11---9-9--9--||
D|-6^--4-4/6-6^--6/9-9^---9-9-9/7-7-7-----7-7-7/6----6-6^---6/9-9-9--9--9----7-7--7---||
A|------------------------------------------------7—-7-7^-----------------------------||
E|------------------------------------------------------------------------------------||


[Stacco]

G# D G# B A (x4)


[Verse]

E  G#
Nel letto, aspetto ogni giorno un pezzo di te,
A  E
un grammo di gioia del tuo sorriso e non mi basta
G# A
nuotare nell’aria per immaginarti: se tu sapessi che pena.
E  G#
Intanto l’aria intorno è più NEBBIA che altro,
A
l’aria è più nebbia che altro.

 E  G# A
e|---------------------------------------------------12^^^----||
B|-----------------------------10-10-9-9-10-10-15-14----------||
G|------------4^^^^^------------------------------------------||
D|------------------------------------------------------------||
A|-7^^^^^^^^---------7^^^^^-----------------------------------||
E|------------------------------------------------------------||


[Arpeggio] (lungo) 

E7+


[Stacco]

E F# G# (x4) 
A A


[Verse]

E
E’ certo un brivido averti qui con me
G# A
in volo libero sugli anni andati ormai
E
e non è facile, dovresti credermi,
G# A
sentirti qui con me perché tu non ci sei.
E
Mi piacerebbe sai, sentirti piangere,
G# A
anche una lacrima, per pochi attimi.
E
Mi piacerebbe sai, sentirti piangere,
G# A
anche una lacrima, per pochi attimi…


[Solo]

e|------------------------------------------------------------------------------||
B|------------------------------------------------------------------------------||
G|------------------------------------------------------------------------------||
D|-7/14-14-14-14-14-14-14--14---------------------13/11-11/9-9^-----------------||
A|----------------------------14-14/12-12/11-11/7-------------------------------||
E|------------------------------------------------------------------------------||

e|------------------------------------------------------------------------------||
B|-----------------9------9-12-9-------12-12-9---9/10-10-15-15-15-15-15h16b15---||
G|-----------6-8-9----9-9--------9-9-9---------9--------------------------------||
D|-6-8-9--9---------------------------------------------------------------------||
A|------------------------------------------------------------------------------||
E|------------------------------------------------------------------------------||

e|------------------------------------------------------------------------------||
B|-15/18-18-18-18-18-18-18h20b18-18-h20b18-12-10-10/9-9--9-9/10-10-14^----------||
G|------------------------------------------------------------------------------||
D|------------------------------------------------------------------------------||
A|------------------------------------------------------------------------------||
E|------------------------------------------------------------------------------||

e|------------------------------------------------------------------------------||
B|------------------------10-10-9-9-10-10-15-14---------------------------------||
G|-999999999-88888-9999----------------------------13/14-14/13------9999999999--||
D|------------------------------------------------------------------------------||
A|------------------------------------------------------------------------------||
E|------------------------------------------------------------------------------||

e|----------------------------------------------------------------------------------||
B|------------------------------10-10-9-9-10-10-15-14-15-15-15-15-------------------||
G|-13/14-14/13-13—888888/44444-------------------------------------14---------------||
D|---------------------------------------------------------------------14-----------||
A|----------------------------------------------------------------------------------||
E|----------------------------------------------------------------------------------||



************************************

| h  Hammer-on
| b  Bend
| /  Slide up
| ^  Vibrato

            
            
Suggest correction
Creating personal tab
Creating personal tab
You can edit any tab online and save it as your Personal.

You can edit, replace or remove any tab part or add personal notes – all changes will be seen only by you.

Personal tabs can be accessed anytime from any device, even offline.
Learn more »
Give kudos to tab author, rate the tab!
1 2 3 4 5
comments
print report bad tab
guest
You may want to rate the tab now too:
select rating
Wanna post a correction for this tab? Suggest correction