Oops, an error
Loading. Please wait.

Everybody Dance Tab

2,242 views 1 this week
2 commentsread comments
1 2 3 4 5
2 more votes to show rating
add to favorites
launch autoscroll
font size
0
reset
how to read this tab
guitar tuner
Autoscroll
slow
fast
+/-
esc
set tempo
stop
Help us to improve Ultimate-Guitar.com Take our survey!
×
Author
Difficulty
Tuning
novice
D A D G B E
Everybody Dance - Marmaduke duke
Tabbed by: David H
Tuning :drop D

Until the song is released on "part 2" it can be found at www.myspace.com/magnificentduke  

e|-12-12-12-12-14-12-|
B|-12-12-12-12-12-12-|
G|-12-12-12-12-12-12-|
D|-------------------|
A|-------------------| x16
D|-------------------|

e|-----------------|
B|-----------------|
G|-----------------|
D|-9----7----------|
A|-9----7----------|
D|-9----7----------|

e|-14-14-14-14-16-14--|
B|-14-14-14-14-14-14--|
G|-14-14-14-14-14-14--|
D|--------------------|
A|--------------------| x2
D|--------------------|

e|-12-12-12-12-14-12-|
B|-12-12-12-12-12-12-|
G|-12-12-12-12-12-12-|
D|-------------------|
A|-------------------| x4
D|-------------------|

e|-----------------|
B|-----------------|
G|-----------------|
D|-9----7----------|
A|-9----7----------|
D|-9----7----------|

e|-14-14-14-14-16-14--|
B|-14-14-14-14-14-14--|
G|-14-14-14-14-14-14--|
D|--------------------|
A|--------------------| x2
D|--------------------|

e|-12-12-12-12-14-12-|
B|-12-12-12-12-12-12-|
G|-12-12-12-12-12-12-|
D|-------------------|
A|-------------------| x2
D|-------------------|

e|-14-14-14-14-14--|
B|-12-12-12-12-12--|
G|-12-12-12-12-12--|
D|-----------------|
A|-----------------| x2
D|-----------------|

e|-12-12-12-12-14-12-|
B|-12-12-12-12-12-12-|
G|-12-12-12-12-12-12-|
D|-------------------|
A|-------------------| x2
D|-------------------|

e|-14-14-14-14-14--|
B|-12-12-12-12-12--|
G|-12-12-12-12-12--|
D|-----------------|
A|-----------------| x2
D|-----------------|

Drum  break

e|-14-14-14-14-16-14--|
B|-14-14-14-14-14-14--|
G|-14-14-14-14-14-14--|
D|--------------------|
A|--------------------| x2
D|--------------------|

e|-12-12-12-12-14-12-|
B|-12-12-12-12-12-12-|
G|-12-12-12-12-12-12-|
D|-------------------|
A|-------------------| x2
D|-------------------|

e|-14-14-14-14-14--|
B|-12-12-12-12-12--|
G|-12-12-12-12-12--|
D|-----------------|
A|-----------------| x2
D|-----------------|

e|-12-12-12-12-14-12-|
B|-12-12-12-12-12-12-|
G|-12-12-12-12-12-12-|
D|-------------------|
A|-------------------| x2
D|-------------------|

e|-14-14-14-14-14--|
B|-12-12-12-12-12--|
G|-12-12-12-12-12--|
D|-----------------|
A|-----------------| x2
D|-----------------|

e|-12-12-12-12-14-12-|
B|-12-12-12-12-12-12-|
G|-12-12-12-12-12-12-|
D|-------------------|
A|-------------------| x2
D|-------------------|

e|-14-14-14-14-14--|
B|-12-12-12-12-12--|
G|-12-12-12-12-12--|
D|-----------------|
A|-----------------| x2
D|-----------------|

e|-12-12-12-12-14-12-|
B|-12-12-12-12-12-12-|
G|-12-12-12-12-12-12-|
D|-------------------|
A|-------------------| x2
D|-------------------|

e|-14-14-14-14-14--|
B|-12-12-12-12-12--|
G|-12-12-12-12-12--|
D|-----------------|
A|-----------------| x2
D|-----------------|

e|----------------------------------|
B|----------------------------------|
G|-77-99---44-55---77-99--4-9-7-5---|
D|-77-99---44-55---77-99--4-9-7-5---|
A|-55-77---22-33---55-77--2-7-5-3---| x4
D|----------------------------------|

e|-12-12-12-12---|
B|-12-12-12-12---| improvise a funky rhythm with this chord
G|---------------|
D|---------------|
A|---------------| x8
D|---------------|

Guitar I
e|----------------------------------|
B|----------------------------------|
G|-77-99---44-55---77-99--4-9-7-5---|
D|-77-99---44-55---77-99--4-9-7-5---|
A|-55-77---22-33---55-77--2-7-5-3---| x2
D|----------------------------------|
Guitar II
e|-15-15-15-15-14-12---15-15-15-15-14----|
B|-12-12-12-12-12-12---12-12-12-12-12----|
G|-12-12-12-12-12-12---12-12-12-12-12----|
D|---------------------------------------|
A|---------------------------------------|x4
D|---------------------------------------|

Guitar I
e|---------|
B|---------|
G|-77-99---|
D|-77-99---|
A|-55-77---|
D|---------| x8
Guitar II
e|-12-12-12-12---|
B|-12-12-12-12---| improvise a funky rhythm with this chord
G|---------------|
D|---------------|
A|---------------| x8
D|---------------|

End with
e|---------|
B|---------|
G|-77-99---|
D|-77-99---|
A|-55-77---|
D|---------|



Enjoy!


Suggest correction
Give kudos to tab author, rate the tab!
1 2 3 4 5
comments
print report bad tab
2 comments total.
0 reply
Vodd 130 May 20, 2009 01:30 PM

Tab is spot on. Might find it easier to play guitar 1 part on D string as:
D-12-12--14-14---9-9--10-10---12-12--14-14---9-14-12-10
A-12-12--14-14---9-9--10-10---12-12--14-14---9-14-12-10
D-12-12--14-14---9-9--10-10---12-12--14-14---9-14-12-10

0 reply
AdamKevan 41 Aug 28, 2010 04:33 PM

You need to change this part from

e|-12-12-12-12-14-12-| e|-15-15-15-15-14-12-|
B|-12-12-12-12-12-12-| B|-12-12-12-12-12-12-|
G|-12-12-12-12-12-12-| G|-12-12-12-12-12-12-|
D|-------------------| D|-------------------|
A|-------------------|toA|-------------------|
D|-------------------| D|-------------------|

e|-14-14-14-14-16-14--| e|-17-17-17-17-16-14-|
B|-14-14-14-14-14-14--| B|-14-14-14-14-14-14-|
G|-14-14-14-14-14-14--| G|-14-14-14-14-14-14-|
D|--------------------| D|-------------------|
A|--------------------|toA|-------------------|
D|--------------------| E|-------------------|

guest
You may want to rate the tab now too:
select rating
Wanna post a correction for this tab? Suggest correction