Oops, an error
Loading. Please wait.

The Kiss And The Consonant Tab

679 views 1 this week
no commentswrite comment
1 2 3 4 5
please rate
add to favorites
launch autoscroll
font size
0
reset
how to read this tab
guitar tuner
Autoscroll
slow
fast
+/-
esc
set tempo
stop
Help us to improve Ultimate-Guitar.com Take our survey!
×
Contributor
Artist: Marmaduke Duke
Song: The Kiss And The Consonant
Tuning: C A D G B E (Tune just the low E down to C. Not sure if they play it like this, 
it works)

Intro (w/ distortion and octaver I believe)
E----------------------------------------------|
B----------------------------------------------|
G-7-8-10-8-7--------------7-8-10-8-7-----------| 2x
D-------------7-8-10-8-7--------------7-8-10~--|
A----------------------------------------------|
C----------------------------------------------|

E----------------------------------------------|
B----------------------------------------------|
G--7-8-10-8-7--------------7-8-10-8-7----------|
D--------------7-8-10-8-7--------------7-8-10~-|
A----------------------------------------------|
C-0~~~~~~~~~~~~~~~~~~~~~~----------------------|

Pt. 2 (This song has a weird structure so I don't really know how to label all the parts
(no octaver)
E------------8h9p8p6-8------------|
B-8h9p8p6-8-------------8h9p8p6-8-|
G---------------------------------|
D---------------------------------| 3 x
A---------------------------------|
C---------------------------------|

Then
E------------8h9p8p6-8----------------------|
B-8h9p8p6-8-------------8h9p8p6-8-----------|
G-------------------------------------------|
D-------------------------------------------| 5 x
A-------------------------------------------|
C---------------------------------0-0--0--0-|

Pt. 3
E---------------------------------------------------------------------------|
B---------------------------------------------------------------------------|
G---------------------------------------------------------------------------|
D---------------------------------------------------------------------------|
A--------6---------6---------6---------6---------6---------6---------6------|
C-0h5h6h7---0h5h6h7---0h5h6h7---0h5h6h7---0h5h6h7---0h5h6h7---0h5h6h7--0--0-|

Then
E-------------------------------------------------------------------------|
B-------------------------------------------------------------------------|
G-10h12h13p12-10h12h13p10-12h13h15p13-12h13h15p12-13h15h17p13-13h15h17p13-|
D-------------------------------------------------------------------------|
A-------------------------------------------------------------------------|
C-------------------------------------------------------------------------|

E-------------------------------------------------------------------------|
B-------------------------------------------------------------------------|
G-15h17h19p15-15h17h19p15-17h18h20p18-17h18h20p17-18h20h22p18-18h20h22p18-|
D-------------------------------------------------------------------------|
A-------------------------------------------------------------------------|
C-------------------------------------------------------------------------|

E------------------
B-22full step bend-
G------------------|
D------------------|
A------------------|
C------------------|

Pt. 4 (I know this is wrong, but I can't figure out the notes in between the 0's. Any
would be awesome.)
E----------|
B----------|
G--------9-|
D--------9-|
A--------9-|
C-0-0--0---|

Pt. 5
E------------8p6-8h9-8------------|
B-8p6-8h9-8-------------8p6-8h9-8-|
G---------------------------------|
D---------------------------------|
A---------------------------------|
C---------------------------------|

E------------8h9p8p6-8------------|
B-8h9p8p6-8-------------8h9p8p6-8-|
G---------------------------------|
D---------------------------------|
A---------------------------------|
C---------------------------------|

E------------8p6-8h9-8------------|
B-8p6-8h9-8-------------8p6-8h9-8-|
G---------------------------------|
D---------------------------------|
A---------------------------------|
C---------------------------------|

E------------8h9p8p6-8------------|
B-8h9p8p6-8-------------8h9p8p6-8-|
G---------------------------------|
D---------------------------------|
A---------------------------------|
C---------------------------------|

Then Pt. 4 again.

Pt. 6 (palm muted)
E---------------|
B---------------|
G---------------|
D---------------|
A---------------|
C-0-0-0-0--0--0-|

Then (not palm muted)
E-----------------------|
B-----------------------|
G-----------------------|
D-----------------------|
A-----------------------|
C-0-0-0-0-0-1--0-0-0-1--|

Outro (not sure on this either)
E-------------------------------|
B-------------------------------|
G-------------------------------|
D-------------------------------|
A-------------------------------|
C-0-1-0--3-1-0--6-5-0--0--0-3*--|

Then (palm muted)
E------------------------------|
B------------------------------|
G------------------------------|
D------------------------------|
A------------------------------|
C-0-1-0--3-1-0--6-5-0--0--0--0-|

There you go. Any feedback and corrections for this would be great. Enjoy :).
comments
We did not receive enough feedback on this tab! Please rate:
print report bad tab
1 2 3 4 5
I want to post or [tab]
guest
You may want to rate the tab now too:
select rating
Please do not post tabs as comments. Select "correction" instead!