Oops, an error
Loading. Please wait.

Move Shake Hide Bass Tab

22 views 15 this week
no commentswrite comment
1 2 3 4 5
3 more votes to show rating
add to favorites
launch autoscroll
font size
0
reset
guitar tuner
Autoscroll
slow
fast
+/-
esc
set tempo
stop
Help us to improve Ultimate-Guitar.com Take our survey!
×
Author
Tuning
D A D G B E
About this tab version
This tab is in time with the original Move Shake Hide music video. Was this info helpful? Yes No
I'm pretty sure its drop D tuning, but I could be mistaken

(0:00-0:12)      
G|-7_______--|   
D|-0_______--|   
A|-5_______--|   
D|-0_______--|
 
(0:13-0:22)
G|----------------------------------|
D|----------------------------------|
A|----------------------------------|
D|--0-0-3-0-0-0-3-0-0-0-3-0-0-0-10\-| x3


(0:23-0:31)
MOVE SHAKE MOVE SHAKE AND HIDE...
G|-7-7-----7-7-----7-7-----7-7|
D|-0-0-----0-0-----0-0-----0-0|
A|-5-5-----5-5-----5-5-----5-5|
D|-0-0-----0-0-----0-0-----0-0|

(0:32-0:35)
HOPE YOU DONT MIND...
G|----------------------|
D|----------------------|
A|----------------------|
D|-3--3-5-3--3-3-3-5-3\-|

(0:36-0:44)
CAN YOU REALLY SEE EVERYTHING...
G|-----------------|-----------------------|
D|-----------------|-----------------------|
A|-----------------|-----------------------|
D|-0-0-10-0-0-0-10-|-0-0-0-10-0-0-0-15-x2--| x3

(0:45-0:48)
BUT THAT MEANS NOTHIN'...
G|---------------------|
D|---------------------|
A|---------------------|
D|-3/-5--3-5-3--5-3-2/-|

Chorus 1
(0:49-0:54
EASY ON THE EYES MY FRIEND...
G|------------------------|
D|------------------------|
A|------------------------|
D|-5-x16---0-x8---10-x8---|

(0:55-0:59)
SOMETIMES THE BLEEDING SUN...
G|------------------------|
D|------------------------|
A|------------------------|
D|-8-x16---0-x8---10-x8---|

(1:00-1:05)
COVERING MY ONLY WAY...
G|------------------------|
D|------------------------|
A|------------------------|
D|-5-x16---0-x8---10-x8---|

(1:06-1:11)
SO COME AT ME, SON...
G|------------------------|
D|------------------------|
A|------------------------|
D|-8-x16---6-x8---8-x8----|


(1:12-1:18)
I'M ALIVE...
G|-----------------------------------------|-----------------------------------------|
D|-10--13-10-10--13-10-10--13-10-10--13-10-|-----------------------------------------|
A|-----------------------------------------|-----------------------------------------|
D|-----------------------------------------|-10--13-10-10--13-10-10--13-10-10--13-10-|

(1:17-1:20)
G|-------------------------------------|
D|-------------------------------------|
A|-------------------------------------|
D|-8-10-5-6_______________-0-0-0-3-5-6-|

(1:20-1:27)
NOW I'VE GOT YOU WHERE YOU NEED TO BE...
G|------------------------------------|-------------|
D|------------------------------------|-------------|
A|------------------------------------|-------------|
D|-----------0-0-10-0-0-0-10-0-0-0-10-|-0-0-0-15-x2-|

(PAUSE)

(1:29-1:35)
MOVE SHAKE MOVE SHAKE AND HIDE...
G|-----------------|-----------------|
D|-----------------|-----------------|
A|-----------------|-----------------|
D|-0-0-10-0-0-0-10-|-0-0-0-10-0-0-0-15| x2

(1:36-1:41)
G|--------------------------------------------------------------|---------|
D|--------------------------------------------------------------|---------|
A|--------------------------------------------------------------|---------|
D|-0-0-10-0-0-0-10-0-0-0-10-0-0-0-10-0-0-0-10-0-0-0-10-0-0-0-10-|-0-13-x8-|

(1:42-1:46)
EASY ON THE EYES MY FRIEND...
G|------------------------|
D|------------------------|
A|------------------------|
D|-5-x16---0-x8---10-x8---|

(1:47-1:52)
SOMETIMES THE BLEEDING SUN...
G|------------------------|
D|------------------------|
A|------------------------|
D|-8-x16---0-x8---10-x8---|

(1:54-1:58)
COVERING MY ONLY WAY...
G|------------------------|
D|------------------------|
A|------------------------|
D|-5-x16---0-x8---10-x8---|

(1:59-2:05)
SO COME AT ME, SON...
G|------------------------|
D|------------------------|
A|------------------------|
D|-8-x16---6-x8---8-x8----|

(2:06-2:14)
I'M ALIVE...
G|-------------------------------------------------|----------------------------|
D|-------------------------------------------------|----------------------------|
A|-------------------------------------------------|----------------------------|
D|-0-3-0-0-3-0-0-3-0-0-3-0-0-3-0-0-3-0-0-3-0-0-3-0-|-8-10-5-6_______-0-0-0-3-5-6|

(2:15-2:23)
I'M ALIVE...
G|---------------------------------|-----------------------------|
D|---------------------------------|-----------------------------|
A|---------------------------------|-----------------------------|
D|-0--0-0--0--0-0--0--0-0--0--0-0--|-8-10-5-6_______-0-0-0-3-5-6-|

(PAUSE)

(2:28-2:340)
MOVE SHAKE MOVE SHAKE AND HIDE...
G|-----------------|
D|-----------------|
A|-----------------|
D|-0-x39-----------|

(2:41-2:46)
G|----------------------------------------------------------|
D|----------------------------------------------------------|
A|----------------------------------------------------------|
D|-0-3-0-X-X-X-X-0-3-0-X-X-X-X-0-3-0-X-X-X-X-0-0-3-3-5-5-6--|

(2:47-2:57)
G|-------------------------------|-----------------------------------------|
D|-------------------------------|-----------------------------------------|
A|-------------------------------|-----------------------------------------|
D|-0-3-0-X-X-X-X-0-3-0-X-X-X-0---|---0-3-0---0-3-0---0-3-0---0-0-3-3-5-5-6-|

(PAUSE)

(3:00-3:03)
EASY ON THE EYES MY FRIEND...
G|----------------|
D|----------------|
A|----------------|
D|-0-x8---10-x8---|

(3:04-3:08)
SOMETIMES THE BLEEDING SUN...
G|------------------------|
D|------------------------|
A|------------------------|
D|-8-x16---0-x8---10-x8---|

(3:09-3:14)
COVERING MY ONLY WAY...
G|------------------------|
D|------------------------|
A|------------------------|
D|-5-x16---0-x8---10-x8---|

(3:15-3:20)
SO COME AT ME, SON...
G|------------------------|
D|------------------------|
A|------------------------|
D|-8-x16---6-x8---8-x8----|

(3:21-3:25)
I'M ALIVE...
G|--------------------------|
D|--------------------------|
A|--------------------------|
D|-0--0-0--0--0-0--10-0-12\-|
 
************************************

___=sustained note
\=slide down
/=slide up
x=Repeat
X=Muted

************************************ 
Suggest correction
Give kudos to tab author, rate the tab!
1 2 3 4 5
comments
print report bad tab
guest
You may want to rate the tab now too:
select rating
Wanna post a correction for this tab? Suggest correction