Oops, an error
Loading. Please wait.

As Things Collide Tab

6,799 views 3 this week
2 commentsread comments
1 2 3 4 5
x 3
add to favorites
launch autoscroll
font size
0
reset
how to read this tab
guitar tuner
Autoscroll
slow
fast
+/-
esc
set tempo
stop
Help us to improve Ultimate-Guitar.com Take our survey!
×
Author
Difficulty
intermediate
Here you go... Enjoy... And please, leave comments if you have any questions or concerns...

UPDATE: 1/29/13 - Looking through my old tabs and noticed a few issues that needed 
correcting. Piano breakdown was the worst mistake, but there were a few very minor 
discrepancies in the solo as well. However, all has been corrected! Hopefully 
these couple mistakes haven't steered anyone too terribly wrong... O_o

-----------------------------

As Things Collide
Maroon 5

Intro Riff and Verse Riff:

  D  A   G   A      G  A  D
E|--------------------3--5----------|
B|7--5---3-----------3--5-7~--------|
G|77-6-6-4--466h76--4--6--7~--------|
D|7-77--75-5------7-------7~--------|
A|-----------------7----------------|
E|----------------------------------|

The guitarist does a lot of variations on this riff throughout this song,
but this is the basic riff. If you play this the whole way through, no one
will know the difference, but if you really feel the urge you can fill in a
bunch of extras in between and change it up a bit.

If you want, you can switch to this strumming pattern as the song picks up.

  D  A   G   A    G  A  D
E|22~0~0~3~3~0000~33~00~2~--------|
B|33~2~2~3~3~2322~33~22~3~--------|
G|22~2~2~0~0~2222~00~22~2~--------|
D|00~2~2~0~0~2222~00~22~0~--------|
A|00~0~0~2~2~0000~22~00~0~--------|
E|-------3~3~-----33~-------------|

Bridge:

This is the bridge as played when picking. This can be done through the
whole song, but if you want to use the strumming pattern, as shown below,
then just use the picking for the first part of the song then switch to
strumming. If you listen to the song, you’ll know where to make the switch.

  Bm      Bm/A#   BmA     E/D     G       A
E|---------------------------0--------3------5----|
B|---3-------3-------3---------3--------3------5--|
G|-4---4---3---3---2---2---1----1--0-----0-6----6-|
D|--4---4---4---4---4---4---0-------0-------7-----|
A|2-------2-------2-------------------------------|
E|------------------------0-------3-------5-------|

  Bm      Bm/A#   BmA    E7       G       A
E|-----------------------0~00~00003~33~3335~55~555-|
B|--------3~33~3333~33~333~33~33333~33~3335~55~555-|
G|4~44~4443~33~3332~22~221~11~11110~00~0006~66~666-|
D|4~44~4444~44~4444~44~440~00~00000~00~0007~77~777-|
A|2~22~2222~22~2222~22~222~22~22222~22~2227~77~777-|
E|-----------------------0~00~00003~33~3335~55~555-|

Build-up:

  D       E       F       G
E|22222222444444445555555577777777|
B|33333333555555556666666688888888|
G|22222222444444445555555577777777|
D|--------------------------------|
A|--------------------------------|
E|--------------------------------|

This is the strumming pattern for the build-up.

  D       E       F       G
E|22222222000000001111111133333333|
B|33333333000000001111111133333333|
G|22222222111111112222222200000000|
D|00000000222222223333333300000000|
A|00000000222222223333333322222222|
E|--------000000001111111133333333|

Piano Breakdown:

E|----------------|
B|------------5---|
G|----575-------5-|
D|--47---7~-47---7|
A|-5-------5------|
E|----------------|

Guitar Solo:

E|---------------------------------------------------------------------|
B|101010~-----------------------------------101010~--------------------|
G|-------------4~------4h5p42~----------------------------4~-----4h57~-|
D|---------------------------------------------------------------------|
A|---------------------------------------------------------------------|
E|---------------------------------------------------------------------|

E|-----------------------------------10---------------10~--12b14~-----10~----|
B|---------------10-7-10-7----10--10--------10-------------------------------|
G|--------------7--7-7--7-7--7--77--7--7---7--77--7911-----------------------|
D|-------------------------9------------8-------9----------------------------|
A|---------------------------------------------------------------------------|
E|---------------------------------------------------------------------------|

E|10~----10~------/1214~---------------17~-15~14-------------------------------|
B|-------------------17b19~---13~---------------15-----------------------------|
G|------------------------------------------------14--------14--14~--14--14~--\|
D|--------------------------------------------------16~-------16---16--16------|
A|-----------------------------------------------------------------------------|
E|-----------------------------------------------------------------------------|

E|---------------------------------------17b19r17------------|
B|---15--15~--1517b1919~-1919r17-15h1715~---------15~--------|
G|/14--14---14-----------------------------------------------|
D|-----------------------------------------------------------|
A|-----------------------------------------------------------|
E|-----------------------------------------------------------|

E|------------------------------------14~--------------------------------------|
B|15~1415~-1415~-1415~14-/17~15~15151417b19~----r1715~-14~---------------------|
G|--------------------------------------------------------14~------------------|
D|-----------------------------------------------------------16~--14~--12~-----|
A|-----------------------------------------------------------------------------|
E|-----------------------------------------------------------------------------|

E|---------------------------------------------------------|
B|---------------------------------------------------------|
G|---------------------------------------------------------|
D|9~------8~------7~-----/14~------5~------7~--------------|
A|x-------x-------x-------x--------x-------x---------------|
E|7~------6~------5~-----/12~------3~------5~--------------|
Suggest correction
Give kudos to tab author, rate the tab!
1 2 3 4 5
comments
print report bad tab
2 comments total.
-1 reply
linzhanet 10 Aug 06, 2012 10:48 AM

Hello, everybody, the good shoping place, the new season approaching, click in. , characteristic, novel style, varieties, low price and good quality, and the low sale price. Thank everyone .
Welcome to http://www.luckygrip.com
Air Jordan (1-24) shoes $35
Timberland shoes $55
jacket $ 52
Handbags ( Coach Lv fendi D&G) $35
T-shirts (polo, ed hardy, lacoste) $16
Jean (True Religion, ed hardy, coogi)$34
Sunglasses (coach, Gucci, Armaini)$16
New era cap $9
Bikini (Ed hardy, polo) $18
FREE SHIPPING
=== http://www.luckygrip.com
=== http://www.luckygrip.com

+1 reply
skaterbillx 11 Jun 06, 2013 09:21 PM

so irrelevant to guitar tabs

guest
You may want to rate the tab now too:
select rating
Wanna post a correction for this tab? Suggest correction