Oops, an error
Loading. Please wait.

Cant Stop Tab

version 1
version 1

Whole song

19,233 views 3 this week
7 commentsread comments
1 2 3 4 5
x 4
add to favorites
launch autoscroll
font size
0
reset
how to read this tab
guitar tuner
Autoscroll
slow
fast
+/-
esc
set tempo
stop
Help us to improve Ultimate-Guitar.com Take our survey!
×
Author
Tuning
D A D G B E
Drop D Tuning

Main Riff:

e|---------------------------------------------------------------------------------|
B|---------------------------------------------------------------------------------|
G|---------------------------------------------------------------------------------|
D|---7---10-10---7--9----7--10-10--7--9--------------------------------------------|
A|---7---10-10---7--9----7--10-10--7--9--------------------------------------------|
D|---7---10-10---7--9----7--10-10--7--9--------------------------------------------|

Alternate Riff:

e|---------------------------------------------------------------------------------|
B|---------------------------------------------------------------------------------|
G|---------------------------------------------------------------------------------|
D|---7---10-10---7--9--5-5---7--10-10--7--9----------------------------------------|
A|---7---10-10---7--9--5-5---7--10-10--7--9----------------------------------------|
D|---7---10-10---7--9--5-5---7--10-10--7--9----------------------------------------|


Chorus:

Play x2
e|---------------------------------------------------------------------------|
B|---------------------------------------------------------------------------|
G|---------------------------------------------------------------------------|
D|----9--9-12--9-10/6---6--6-9--6-7----10--12--14--7---3---6--6-9--6-7-------|
A|----9--9-12--9-10/6---6--6-9--6-7----10--12--14--7---3---6--6-9--6-7-------|
D|----9--9-12--9-10/6---6--6-9--6-7----10--12--14--7---3---6--6-9--6-7-------|

Pre Bridge:

e|---------------------------------------------------------------------------|
B|---------------------------------------------------------------------------|
G|---------------------------------------------------------------------------|
D|----9--9-12--9-10/6---6--6-9--6-7----10--12--14--7---3---6--6-9--6-7-------|
A|----9--9-12--9-10/6---6--6-9--6-7----10--12--14--7---3---6--6-9--6-7-------|
D|----9--9-12--9-10/6---6--6-9--6-7----10--12--14--7---3---6--6-9--6-7-------|

e|---------------------------------------------------------------------|
B|---------------------------------------------------------------------|
G|---------------------------------------------------------------------|
D|----9--9-12--9-10/6---6--6-9--6-7----10--12--14--7--3--2-------------|
A|----9--9-12--9-10/6---6--6-9--6-7----10--12--14--7--3--2-------------|
D|----9--9-12--9-10/6---6--6-9--6-7----10--12--14--7--3--2-------------|


Bridge:

play x4
e|---------------------------------------------------------------------------|
B|---------------------------------------------------------------------------|
G|--------------------4----6-x--4--------------------------------------------|
D|------------4----6----4----------6-----------------------------------------|
A|-4-7-4---6----6------------------------------------------------------------|
D|---------------------------------------------------------------------------|

e|-----------------------------------------------------------------------------|
B|-----------------------------------------------------------------------------|
G|--6--8--9---11---------------------------------------------------------------|
D|--6--8--9---11---------------------------------------------------------------|
A|--4--6--7---9(x4)------------------------------------------------------------|
D|-----------------------------------------------------------------------------|


e|-------------------------------------------------------------------|
B|-------------------------------------------------------------------|
G|-------------------------------------------------------------------|
D|----9--9-12--9-10---6--6-9--6-7---4--4-7--4--6---13-13--12---10-9--|
A|----9--9-12--9-10---6--6-9--6-7---4--4-7--4--6---13-13--12---10-9--|
D|----9--9-12--9-10---6--6-9--6-7---4--4-7--4--6---13-13--12---10-9--|


ending:

play x2
e|-------------------------------------------------------------------------------|
B|-------------------------------------------------------------------------------|
G|-------------------------------------------------------------------------------|
D|----9--9-12--9-10/6---6--6-9--6-7----10--12--14--7---3---6--7-9--6-7-----------|
A|----9--9-12--9-10/6---6--6-9--6-7----10--12--14--7---3---6--7-9--6-7-----------|
D|----9--9-12--9-10/6---6--6-9--6-7----10--12--14--7---3---6--7-9--6-7-----------|
Suggest correction
comments
print report bad tab
7 comments total. Showing first comments.
0 reply
deadly_teapot 30 Jun 21, 2007 09:33 AM

hey um to be in tune it needs a capo on fret 1 methinky, xx

0 reply
NoShiningArmor 10 Jun 28, 2007 09:50 PM

no, no, no.

the main riff is: (listen to the song for the timing)
(in standard tuning)
A-----5---------------------5-7----------------
E-7-7---7-8-8-4-4-7-4-5-5-8-----3-1-1-4-4-7-4-5

questions comments concerns? message me.

0 reply
scarlet20 1,677 Jun 29, 2007 09:48 AM

oh sorry my fault, I fixed the Key it should be right now

guest
You may want to rate the tab now too:
select rating
Wanna post a correction for this tab? Suggest correction