Oops, an error
Loading. Please wait.

Cold tab

version 1
version 1

Whole song

  • Fully strutched tab with song timings. Easy to follow.
  • Fingerstyle arrangement by Andrew Foy.

Video

  • High quality video lesson with on screen tab, easy to follow.
1,093 views 18 this week
no commentswrite comment
1 2 3 4 5
3 more votes to show rating
add to favorites
×
Save as Personal and add changes to this tab that will be seen only by you. Learn more ›
×
You can save this tab as Personal to edit and correct it or add notes. All changes will be seen only by you. Learn more »
launch autoscroll
font size
0
reset
how to read this tab
guitar tuner
edit
Autoscroll
slow
fast
+/-
esc
set tempo
stop
About this tab version
Fully strutched tab with song timings. Easy to follow. Was this info helpful? Yes No
===========================================
VIDEO LESSON TO ACOMPANY THIS TAB
https://www.youtube.com/watch?v=5JwuWi8K5uY
===========================================

CHORDS USED:

     F       G       Am      Em
e|---1---|---3---|---0---|---0---|
B|---1---|---3---|---1---|---0---|
G|---2---|---0---|---2---|---0---|
D|---3---|---0---|---2---|---2---|
A|---3---|---2---|---0---|---2---|
E|-------|---3---|-------|---0---|

==================================



[INTRO]
0.00 - 0.21
"Cold enough to chill my bones, it feels like I don't know you anymore..."
e|-1--1-x-1---------x-|-3--3-x-3---------x-|-0--0-x-0---------x-|-0--0-x-0---------x-|
B|-1--1-x-1---------x-|-3--3-x-3---------x-|-1--1-x-1---------x-|-0--0-x-0---------x-|
G|-2--2-x-2---------x-|-0--0-x-0---------x-|-2--2-x-2---------x-|-0--0-x-0---------x-| x2
D|-3--3-x-3---------x-|-0--0-x-0---------x-|-2--2-x-2---------x-|-2--2-x-2---------x-|
A|-3--3-x-3---------x-|-2--2-x-2---------x-|-0--0-x-0---------x-|-2--2-x-2---------x-|
E|------x-----------x-|-3--3-x-3---------x-|------x-----------x-|-0--0-x-0---------x-|
   D  U D D         D   D  U D D          D   D  U D D        D   D  U D D         D



[VERSE]
0.22 - 0.51
"Are we taking time or a time out..."
e|-1--1-1-1--1-1--1-1-|-3--3-3-3--3-3--3-3-|-0--0-0-0--0-0--0-0-|-0--0-0-0--0-0--0-0-|
B|-1--1-1-1--1-1--1-1-|-3--3-3-3--3-3--3-3-|-1--1-1-1--1-1--1-1-|-0--0-0-0--0-0--0-0-|
G|-2--2-2-2--2-2--2-2-|-0--0-0-0--0-0--0-0-|-2--2-2-2--2-2--2-2-|-0--0-0-0--0-0--0-0-| x3
D|-3--3-3-3--3-3--3-3-|-0--0-0-0--0-0--0-0-|-2--2-2-2--2-2--2-2-|-2--2-2-2--2-2--2-2-|
A|-3--3-3-3--3-3--3-3-|-2--2-2-2--2-2--2-2-|-0--0-0-0--0-0--0-0-|-2--2-2-2--2-2--2-2-|
E|--------------------|-3--3-3-3--3-3--3-3-|--------------------|-0--0-0-0--0-0--0-0-|
   .................................................................................
   D  U D D  U D  D D   D  U D D  U D  D D   D  U D D  U D  D D   D  U D D  U D  D D



[CHORUS a]
0.52 - 1.09
"Cold enough to chill my bones, it feels like I don't know you anymore..."
e|-1--1-x-1--1-x-1----|-3--3-x-3--3-x-3----|-0--0-x-0--0-x-0----|-0--0-x-0--0-x-0----|
B|-1--1-x-1--1-x-1----|-3--3-x-3--3-x-3----|-1--1-x-1--1-x-1----|-0--0-x-0--0-x-0----|
G|-2--2-x-2--2-x-2----|-0--0-x-0--0-x-0----|-2--2-x-2--2-x-2----|-0--0-x-0--0-x-0----| x2
D|-3--3-x-3--3-x-3----|-0--0-x-0--0-x-0----|-2--2-x-2--2-x-2----|-2--2-x-2--2-x-2----|
A|-3--3-x-3--3-x-3----|-2--2-x-2--2-x-2----|-0--0-x-0--0-x-0----|-2--2-x-2--2-x-2----|
E|------x------x------|-3--3-x-3--3-x-3----|------x------x------|-0--0-x-0--0-x-0----|
   D  U D D  U D D      D  U D D  U D D      D  U D D  U D D      D  U D D  U D D



[CHORUS b]
"...cold yeah, woah woah..."
1.10 - 1.19
e|--------------------|--------------------|--------------------|--------------------|
B|--------------------|--------------------|--------------------|--------------------|
G|-------5-5-5-7--7/9-|-------5-5-5-7--7/9-|-------5-5-5-7--7/9-|-------5-5-5-7--7/9-| x1
D|-7-7-7--------------|-7-7-7--------------|-7-7-7--------------|-7-7-7--------------|
A|--------------------|--------------------|--------------------|--------------------|
E|--------------------|--------------------|--------------------|--------------------|



[VERSE]
1.20 - 1.48
"What you holding on holding on for..."
e|-1--1-1-1--1-1--1-1-|-3--3-3-3--3-3--3-3-|-0--0-0-0--0-0--0-0-|-0--0-0-0--0-0--0-0-|
B|-1--1-1-1--1-1--1-1-|-3--3-3-3--3-3--3-3-|-1--1-1-1--1-1--1-1-|-0--0-0-0--0-0--0-0-|
G|-2--2-2-2--2-2--2-2-|-0--0-0-0--0-0--0-0-|-2--2-2-2--2-2--2-2-|-0--0-0-0--0-0--0-0-| x3
D|-3--3-3-3--3-3--3-3-|-0--0-0-0--0-0--0-0-|-2--2-2-2--2-2--2-2-|-2--2-2-2--2-2--2-2-|
A|-3--3-3-3--3-3--3-3-|-2--2-2-2--2-2--2-2-|-0--0-0-0--0-0--0-0-|-2--2-2-2--2-2--2-2-|
E|--------------------|-3--3-3-3--3-3--3-3-|--------------------|-0--0-0-0--0-0--0-0-|
   .................................................................................
   D  U D D  U D  D D   D  U D D  U D  D D   D  U D D  U D  D D   D  U D D  U D  D D



[CHORUS a]
1.49 - 2.08
"Cold enough to chill my bones, it feels like I don't know you anymore..."
e|-1--1-x-1--1-x-1----|-3--3-x-3--3-x-3----|-0--0-x-0--0-x-0----|-0--0-x-0--0-x-0----|
B|-1--1-x-1--1-x-1----|-3--3-x-3--3-x-3----|-1--1-x-1--1-x-1----|-0--0-x-0--0-x-0----|
G|-2--2-x-2--2-x-2----|-0--0-x-0--0-x-0----|-2--2-x-2--2-x-2----|-0--0-x-0--0-x-0----| x2
D|-3--3-x-3--3-x-3----|-0--0-x-0--0-x-0----|-2--2-x-2--2-x-2----|-2--2-x-2--2-x-2----|
A|-3--3-x-3--3-x-3----|-2--2-x-2--2-x-2----|-0--0-x-0--0-x-0----|-2--2-x-2--2-x-2----|
E|------x------x------|-3--3-x-3--3-x-3----|------x------x------|-0--0-x-0--0-x-0----|
   D  U D D  U D D      D  U D D  U D D      D  U D D  U D D      D  U D D  U D D



[CHORUS b]
"...cold yeah, woah woah..."
2.09 - 2.27
e|--------------------|--------------------|--------------------|--------------------|
B|--------------------|--------------------|--------------------|--------------------|
G|-------5-5-5-7--7/9-|-------5-5-5-7--7/9-|-------5-5-5-7--7/9-|-------5-5-5-7--7/9-| x1
D|-7-7-7--------------|-7-7-7--------------|-7-7-7--------------|-7-7-7--------------|
A|--------------------|--------------------|--------------------|--------------------|
E|--------------------|--------------------|--------------------|--------------------|



[RAP]
(same as VERSE)
2.28 - 3.05
"Never thought that you were like this..."
e|-1--1-1-1--1-1--1-1-|-3--3-3-3--3-3--3-3-|-0--0-0-0--0-0--0-0-|-0--0-0-0--0-0--0-0-|
B|-1--1-1-1--1-1--1-1-|-3--3-3-3--3-3--3-3-|-1--1-1-1--1-1--1-1-|-0--0-0-0--0-0--0-0-|
G|-2--2-2-2--2-2--2-2-|-0--0-0-0--0-0--0-0-|-2--2-2-2--2-2--2-2-|-0--0-0-0--0-0--0-0-| x3
D|-3--3-3-3--3-3--3-3-|-0--0-0-0--0-0--0-0-|-2--2-2-2--2-2--2-2-|-2--2-2-2--2-2--2-2-|
A|-3--3-3-3--3-3--3-3-|-2--2-2-2--2-2--2-2-|-0--0-0-0--0-0--0-0-|-2--2-2-2--2-2--2-2-|
E|--------------------|-3--3-3-3--3-3--3-3-|--------------------|-0--0-0-0--0-0--0-0-|
   D  U D D  U D  D D   D  U D D  U D  D D   D  U D D  U D  D D   D  U D D  U D  D D



[CHORUS a]
3.06 - 3.24
"Cold enough to chill my bones, it feels like I don't know you anymore..."
e|-1--1-x-1--1-x-1----|-3--3-x-3--3-x-3----|-0--0-x-0--0-x-0----|-0--0-x-0--0-x-0----|
B|-1--1-x-1--1-x-1----|-3--3-x-3--3-x-3----|-1--1-x-1--1-x-1----|-0--0-x-0--0-x-0----|
G|-2--2-x-2--2-x-2----|-0--0-x-0--0-x-0----|-2--2-x-2--2-x-2----|-0--0-x-0--0-x-0----| x2
D|-3--3-x-3--3-x-3----|-0--0-x-0--0-x-0----|-2--2-x-2--2-x-2----|-2--2-x-2--2-x-2----|
A|-3--3-x-3--3-x-3----|-2--2-x-2--2-x-2----|-0--0-x-0--0-x-0----|-2--2-x-2--2-x-2----|
E|------x------x------|-3--3-x-3--3-x-3----|------x------x------|-0--0-x-0--0-x-0----|
   D  U D D  U D D      D  U D D  U D D      D  U D D  U D D      D  U D D  U D D



[CHORUS b]
"...cold yeah, woah woah..."
3.25 - To End
e|--------------------|--------------------|--------------------|--------------------|
B|--------------------|--------------------|--------------------|--------------------|
G|-------5-5-5-7--7/9-|-------5-5-5-7--7/9-|-------5-5-5-7--7/9-|-------5-5-5-7--7/9-| x2
D|-7-7-7--------------|-7-7-7--------------|-7-7-7--------------|-7-7-7--------------|
A|--------------------|--------------------|--------------------|--------------------|
E|--------------------|--------------------|--------------------|--------------------|


***********************************

| /   Slide up
| x   Dead Note
| .   Palm Muted

***********************************
Suggest correction
Creating personal tab
Creating personal tab
You can edit any tab online and save it as your Personal.

You can edit, replace or remove any tab part or add personal notes – all changes will be seen only by you.

Personal tabs can be accessed anytime from any device, even offline.
Learn more »
Give kudos to tab author, rate the tab!
1 2 3 4 5
comments
print report bad tab
guest
You may want to rate the tab now too:
select rating
Wanna post a correction for this tab? Suggest correction