Oops, an error
Loading. Please wait.

Cold tab

version 2
version 2

Whole song

  • Fully strutched tab with song timings. Easy to follow.
  • Fingerstyle arrangement by Andrew Foy.

Video

  • High quality video lesson with on screen tab, easy to follow.
853 views 33 this week
no commentswrite comment
1 2 3 4 5
x 3
add to favorites
×
Save as Personal and add changes to this tab that will be seen only by you. Learn more ›
×
You can save this tab as Personal to edit and correct it or add notes. All changes will be seen only by you. Learn more »
launch autoscroll
font size
0
reset
how to read this tab
guitar tuner
edit
Autoscroll
slow
fast
+/-
esc
set tempo
stop
About this tab version
Fingerstyle arrangement by Andrew Foy. Was this info helpful? Yes No
https://www.youtube.com/watch?v=3BEtKUjbtoU

[Chorus] 
e|-------------0------------------------------0---------------------------------|
B|-1h3--------------------1h3---3--------5/6------3-------5---------------------|
G|-2--------------2-------------4--------------------5----5----5h7-7p5-----5----|
D|-3-----3----------------------5--5----------------------7-7-------------------|
A|--------------------------------------------------------0-------------0-------|
E|-1--------1----------1--------3-----3-----------------------------------------|

e|--7/8\7--5---------------------------------0------------------------------0---|
B|-------------8-----------------1h3--------------------1h3--3---------5/6------|
G|-----------------7p5--5--5h7---2--------------2------------4------------------|
D|-------------------------------3-----3---------------------5--5---------------|
A|------------------------------------------------------------------------------|
E|--0----------------------------1--------1----------1-------3-----3------------|

e|----------------------------7/8\7--5------------------------------------------|
B|-3-----5------------------------------8---------------------------------------|
G|----5--5----5h7-7p5------5---------------7p5--5--5h7--------------------------|
D|-------7-7--------------------------------------------------------------------|
A|-------0--------------0-------------------------------------------------------|
E|----------------------------0-------------------------------------------------|

[Verse]
e|------------------------------------------------------------------------------|
B|--------------------------------------------3--3--3--0----------1-------------|
G|--2-----2-2-2-2--2-2------2p0-0---------0------0--------2---------------------|
D|--3--------------3----------------------------------------------------/7------|
A|--------------------------------------------------------------------0-----0---|
E|--1--1-----------1-----1----------2/3----------3------------3-----------------|

e|-----------------------------------------------------------5-5-5-5------------|
B|----------------------------------1/3-3-3-3-0---------1/----------------------|
G|-----------------------------------------------2---------------------7-7-7p5--|
D|--7-7-7-7-6/7-7-----7p5-5------0----------------------------------------------|
A|----------0-------0----------------------------------------8---------8--------|
E|----------------------------0---------------0-----0---------------------------|

e|----------------------------------------5--5--5--5----------------------------|
B|----------3-3-3-3-3-0----------1--------5--5--5--5--------------------3-3-3---|
G|--5h7/9---0-----0------2----------(0)---5--5--5--5---7-7-7p5---5h7/9--0-------|
D|----------------------------------------7--7--7--7----------------------------|
A|----------------------------------------0-----0------0------------------------|
E|----------3-----3----------3------------------------------------------0-------|

e|------------------------------------------------------------------------------|
B|----3-3-0--------1------------------------------------------------------------|
G|----0------2------------------------------------------------------------------|
D|------------------------------------------------------------------------------|
A|-x---------------x------------------------------------------------------------|
E|-x--0---------0--x------------------------------------------------------------|

[Pre-Chorus]
e|------------------------------------------------------------------------------|
B|------------------------------------------------------------------------------|
G|--0h2------2-----0h2-------0h2------0h2---------0h2---------------------------|
D|--3-----------3------------------------------2-----------/7-----7----------7--|
A|-----------x-----x-----x------------x-----------x-----x---0--0--x--0--0-x-----|
E|--1-----1--x-----x-----x---3----3---x-----3-----x-----x---------x-------x-----|


e|------------------------------------------------------------------------------|
B|------------------------------------------------------------------------------|
G|--4-4h5-4----4-4h5-4----------------------------------------------------------|
D|-----------7----------5\------------------------------------------------------|
A|------------------------------------------------------------------------------|
E|----0-------------------------------------------------------------------------|

[Chorus]
   o                 o                  o            o              o
e|---------------0--------------------------------------------------------------|
B|-1h3--------------------------1h3-----3------------5/6-5--3-------5-----------|
G|-2-------2-------------2--------------4-----4------------------5--------5h7-7-|
D|-3-------3----------------------------5-----5------------------------7--------|
A|------x-----x--------------x-------x-----x-----x----------x-------0--x------x-|
E|-1----x-----x------1-------x-------x--3--x-----x---3------x----------x------x-|

   o                  o                   o
e|--------------------7/8\7--5--------------------------------------------------|
B|-------5-------5---------------8----------------------------------------------|
G|-------5-------5------------------------7-5-5-7-------------------------------|
D|----7-----(7)-----------------------------------------------------------------|
A|-0-----x---0---x-----------x-------x--------x---------------------------------|
E|-------x-------x----0------x-------x--------x---------------------------------|

   o                 o                  o            o              o
e|---------------0--------------------------------------------------------------|
B|-1h3--------------------------1h3-----3------------5/6-5--3-------5-----------|
G|-2-------2-------------2--------------4-----4------------------5--------5h7-7-|
D|-3-------3----------------------------5-----5------------------------7--------|
A|------x-----x--------------x-------x-----x-----x----------x-------0--x------x-|
E|-1----x-----x------1-------x-------x--3--x-----x---3------x----------x------x-|

   o                  o                   o
e|--------------------7/8\7--5--------------------------------------------------|
B|-------5-------5---------------8----------------------------------------------|
G|-------5-------5------------------------7-5-5-7-------------------------------|
D|----7-----(7)-----------------------------------------------------------------|
A|-0-----x---0---x-----------x-------x--------x---------------------------------|
E|-------x-------x----0------x-------x--------x---------------------------------|
       
       o                   o                  o                  o
e|------------------------------------------------------------------------------|
B|------------1--1-----3------/5--------------------1--1------3-----/5----------|
G|-----2--2------2------------------------5---2-2------2----------------------5-|
D|----------------------------------5/7----------------------------------5/7----|
A|--x---------x-----x---------------x-----x---------x------x-------------x----x-|
E|--x--1------x-----x------1--------x-----x---3-----x------x-----1-------x----x-|

    o                o              o
e|----------------------------------7/8\7--5------------------------------------|
B|---------------------------------------------8--------------------------------|
G|---------5-5------7/9---------5----------------------7p5---5-7-----0----------|
D|-/7--7-------------------5/7--------------------------------------------------|
A|--0------x-----x---0-----x----x----------x-------x---------x----x-------------|
E|---------x-----x---------x----x---0------x-------x----0----x----x-------------|

[Verse]
e|------------------------------------------------------------------------------|
B|--------------------------------------------3--3--3--0----------1-------------|
G|--2-----2-2-2-2--2-2------2p0-0---------0------0--------2---------------------|
D|--3--------------3----------------------------------------------------/7------|
A|--------------------------------------------------------------------0-----0---|
E|--1--1-----------1-----1----------2/3----------3------------3-----------------|

e|-----------------------------------------------------------5-5-5-5------------|
B|----------------------------------1/3-3-3-3-0---------1/----------------------|
G|-----------------------------------------------2---------------------7-7-7p5--|
D|--7-7-7-7-6/7-7-----7p5-5------0----------------------------------------------|
A|----------0-------0----------------------------------------8---------8--------|
E|----------------------------0---------------0-----0---------------------------|

e|----------------------------------------5--5--5--5----------------------------|
B|----------3-3-3-3-3-0----------1--------5--5--5--5--------------------3-3-3---|
G|--5h7/9---0-----0------2----------(0)---5--5--5--5---7-7-7p5---5h7/9--0-------|
D|----------------------------------------7--7--7--7----------------------------|
A|----------------------------------------0-----0------0------------------------|
E|----------3-----3----------3------------------------------------------0-------|

e|------------------------------------------------------------------------------|
B|----3-3-0--------1------------------------------------------------------------|
G|----0------2------------------------------------------------------------------|
D|------------------------------------------------------------------------------|
A|-x---------------x------------------------------------------------------------|
E|-x--0---------0--x------------------------------------------------------------|

[Pre-Chorus]
              t                    t                t
e|------------------------------------------------------------------------------|
B|------------------------------------------------------------------------------|
G|-0h2-----2-------0h2------0h2-2--------0h2--0h2-----------------4--4h5-4------|
D|-3----------5/7------------------5/7--------------5/7------3/7------------7---|
A|--------------------------------------------0-----------x---------------------|
E|-1-----1--------------3---------------------------------x----------0----------|

e|------------------------------------------------------------------------------|
B|------------------------------------------------------------------------------|
G|--4-4h5-4---------------------------------------------------------------------|
D|-----------5\-----------------------------------------------------------------|
A|------------------------------------------------------------------------------|
E|------------------------------------------------------------------------------|

[Chorus]
   o                 o                  o            o              o
e|---------------0--------------------------------------------------------------|
B|-1h3--------------------------1h3-----3------------5/6-5--3-------5-----------|
G|-2-------2-------------2--------------4-----4------------------5--------5h7-7-|
D|-3-------3----------------------------5-----5------------------------7--------|
A|------x-----x--------------x-------x-----x-----x----------x-------0--x------x-|
E|-1----x-----x------1-------x-------x--3--x-----x---3------x----------x------x-|

   o                  o                   o
e|--------------------7/8\7--5--------------------------------------------------|
B|-------5-------5---------------8----------------------------------------------|
G|-------5-------5------------------------7-5-5-7-------------------------------|
D|----7-----(7)-----------------------------------------------------------------|
A|-0-----x---0---x-----------x-------x--------x---------------------------------|
E|-------x-------x----0------x-------x--------x---------------------------------|

   o                 o                  o            o              o
e|---------------0--------------------------------------------------------------|
B|-1h3--------------------------1h3-----3------------5/6-5--3-------5-----------|
G|-2-------2-------------2--------------4-----4------------------5--------5h7-7-|
D|-3-------3----------------------------5-----5------------------------7--------|
A|------x-----x--------------x-------x-----x-----x----------x-------0--x------x-|
E|-1----x-----x------1-------x-------x--3--x-----x---3------x----------x------x-|

   o                  o                   o
e|--------------------7/8\7--5--------------------------------------------------|
B|-------5-------5---------------8----------------------------------------------|
G|-------5-------5------------------------7-5-5-7-------------------------------|
D|----7-----(7)-----------------------------------------------------------------|
A|-0-----x---0---x-----------x-------x--------x---------------------------------|
E|-------x-------x----0------x-------x--------x---------------------------------|
       
       o                   o                  o                  o
e|------------------------------------------------------------------------------|
B|------------1--1-----3------/5--------------------1--1------3-----/5----------|
G|-----2--2------2------------------------5---2-2------2----------------------5-|
D|----------------------------------5/7----------------------------------5/7----|
A|--x---------x-----x---------------x-----x---------x------x-------------x----x-|
E|--x--1------x-----x------1--------x-----x---3-----x------x-----1-------x----x-|

    o                o              o                   o
e|----------------------------------7/8\7--5------------------------------------|
B|---------------------------------------------8--------------------------------|
G|---------5-5------7/9---------5----------------------7p5---5-7-----0----------|
D|-/7--7-------------------5/7--------------------------------------------------|
A|--0------x-----x---0-----x----x----------x-------x---------x----x-------------|
E|---------x-----x---------x----x---0------x-------x----0----x----x-------------|

       o                   o                  o                  o
e|------------------------------------------------------------------------------|
B|----------1--1-----3------/5--------------------1--1------3-----/5------------|
G|---2--2------2------------------------5---2-2------2----------------------5---|
D|--------------------------------5/7----------------------------------5/7------|
A|----------x-----x---------------x-----x---------x------x-------------x----x---|
E|---1------x-----x------1--------x-----x---3-----x------x-----1-------x----x---|

    o                o              o
e|----------------------------------7/8\7--5------------------------------------|
B|---------------------------------------------8--------------------------------|
G|---------5-5------7/9---------5----------------------7p5---5-7-----0----------|
D|-/7--7-------------------5/7--------------------------------------------------|
A|--0------x-----x---0-----x----x----------x-------x---------x----x-------------|
E|---------x-----x---------x----x---0------x-------x----0----x----x-------------|

[Post-Chorus]
e|---------------------------------------------------0-----------------2/3----0-|
B|--1--1-----------3-----0--0-----------3--3/4\3--1---1----------------1--------|
G|--2--------------2--------0--0-----------------------0-----0---------0--------|
D|--3------3---------------------0----------------------2-------2---------------|
A|--------------------------------------------------------------------------0---|
E|--1--1------1-------1-----3------3-------------------------------0------------|

e|------------------------------------------------------------------------------|
B|--0---------3----0---1-1-----------3-----1-----3--3---------------5-----(5)---|
G|--0-0-------0--------2-------------2-----2-----4------------------4-----(4)---|
D|------2--------------3-------3-----3----------------------5-------5-----(5)---|
A|--3------------3----------x-----------x-----x---------x--------------x--------|
E|---------0-----------1----x-----1--1--x--1--x--3------x-------3---3--x--------|

e|--5--------------7/8------5----------------3-----0----------------------------|
B|--5--------------5--------5--0--0----------0----------------------------------|
G|--5-5-----5------5--------5--0-------0-----0----------------------------------|
D|--7---------------------------------------------------------------------------|
A|--0----x-----0---------x-----3-----x----3-----x--3--x-------------------------|
E|-------x---------------x-----------x----------x-----x-------------------------|

[Verse]
e|---------0-0-0-----------------------------0-0-0------------------------------|
B|-1----3---------------1h3-1-------------3---------------1h3-1--------------5--|
G|-2----2----------2-2-------------2------2----------2-2---------------------5--|
D|-3-----------------------------------------------------------------/7---------|
A|------x---------------x-----------------x---------------x--------0-----0---x--|
E|-1-1--x---------------x-------3-----3---x---------------x------------------x--|

e|---------------------------------------------------------0-0-0----------------|
B|-5-5-5-5-5----5-5-5-5-5------5-5-5---------------1----3--------------1h3-1----|
G|-----------------------------------------5h7-5---2----2---------2-2-----------|
D|-------------------------------------7-7---------3----------------------------|
A|-----------x--------------x---------------------------x--------------x--------|
E|-0---------x------0-------x--0-------------------1-1--x--------------x------3-|

e|----------0-0-0--------------------------------------------7/8\7-5-7-8-8/10-10\|
B|-------3-------------1h3-1-------------5-5-5-5---------------------------------|
G|-2-----2--------2-2--------------------5------------5h7-5----------------------|
D|-------------------------------/7---------------7-7----------------------------|
A|-------x-------------x------0------0---x---------------------------------------|
E|----3--x-------------x-----------------x-------------------0-------------------|

[Chorus]
   o                 o                  o            o              o
e|---------------0--------------------------------------------------------------|
B|-1h3--------------------------1h3-----3------------5/6-5--3-------5-----------|
G|-2-------2-------------2--------------4-----4------------------5--------5h7-7-|
D|-3-------3----------------------------5-----5------------------------7--------|
A|------x-----x--------------x-------x-----x-----x----------x-------0--x------x-|
E|-1----x-----x------1-------x-------x--3--x-----x---3------x----------x------x-|

   o                  o                   o
e|--------------------7/8\7--5--------------------------------------------------|
B|-------5-------5---------------8----------------------------------------------|
G|-------5-------5------------------------7-5-5-7-------------------------------|
D|----7-----(7)-----------------------------------------------------------------|
A|-0-----x---0---x-----------x-------x--------x---------------------------------|
E|-------x-------x----0------x-------x--------x---------------------------------|

   o                 o                  o            o              o
e|---------------0--------------------------------------------------------------|
B|-1h3--------------------------1h3-----3------------5/6-5--3-------5-----------|
G|-2-------2-------------2--------------4-----4------------------5--------5h7-7-|
D|-3-------3----------------------------5-----5------------------------7--------|
A|------x-----x--------------x-------x-----x-----x----------x-------0--x------x-|
E|-1----x-----x------1-------x-------x--3--x-----x---3------x----------x------x-|

   o                  o                   o
e|--------------------7/8\7--5--------------------------------------------------|
B|-------5-------5---------------8----------------------------------------------|
G|-------5-------5------------------------7-5-5-7-------------------------------|
D|----7-----(7)-----------------------------------------------------------------|
A|-0-----x---0---x-----------x-------x--------x---------------------------------|
E|-------x-------x----0------x-------x--------x---------------------------------|
       
       o                   o                  o                  o
e|------------------------------------------------------------------------------|
B|------------1--1-----3------/5--------------------1--1------3-----/5----------|
G|-----2--2------2------------------------5---2-2------2----------------------5-|
D|----------------------------------5/7----------------------------------5/7----|
A|--x---------x-----x---------------x-----x---------x------x-------------x----x-|
E|--x--1------x-----x------1--------x-----x---3-----x------x-----1-------x----x-|

    o                o              o                   o
e|----------------------------------7/8\7--5------------------------------------|
B|---------------------------------------------8--------------------------------|
G|---------5-5------7/9---------5----------------------7p5---5-7-----0----------|
D|-/7--7-------------------5/7--------------------------------------------------|
A|--0------x-----x---0-----x----x----------x-------x---------x----x-------------|
E|---------x-----x---------x----x---0------x-------x----0----x----x-------------|

       o                   o                  o                  o
e|------------------------------------------------------------------------------|
B|----------1--1-----3------/5--------------------1--1------3-----/5------------|
G|---2--2------2------------------------5---2-2------2----------------------5---|
D|--------------------------------5/7----------------------------------5/7------|
A|----------x-----x---------------x-----x---------x------x-------------x----x---|
E|---1------x-----x------1--------x-----x---3-----x------x-----1-------x----x---|

    o                o              o
e|----------------------------------7/8\7--5------------------------------------|
B|---------------------------------------------8---------------------1----------|
G|---------5-5------7/9---------5----------------------7p5---5-7-----2----------|
D|-/7--7-------------------5/7---------------------------------------3----------|
A|--0------x-----x---0-----x----x----------x-------x---------x------------------|
E|---------x-----x---------x----x---0------x-------x----0----x-------1----------|


************************************

| x   Dead note
|(n) Ghost note
| h   Hammer-on
| p   Pull-off
| /   Slide up
| \   Slide down
| t   Tapping
| o   Wrist thump

************************************

            
            
Suggest correction
Creating personal tab
Creating personal tab
You can edit any tab online and save it as your Personal.

You can edit, replace or remove any tab part or add personal notes – all changes will be seen only by you.

Personal tabs can be accessed anytime from any device, even offline.
Learn more »
Give kudos to tab author, rate the tab!
1 2 3 4 5
comments
print report bad tab
guest
You may want to rate the tab now too:
select rating
Wanna post a correction for this tab? Suggest correction