Oops, an error
Loading. Please wait.

Dont Wanna Know tab

version 2
version 2

Whole song

  • So this tab its sorta a fingerstyle, a middle poin... Show more
  • Fully structured tab with song timings. Easy to follow.

Video

  • High quality, easy to follow video lesson with on screen tab.
301 views 12 this week
no commentswrite comment
1 2 3 4 5
3 more votes to show rating
add to favorites
×
Save as Personal and add changes to this tab that will be seen only by you. Learn more ›
×
You can save this tab as Personal to edit and correct it or add notes. All changes will be seen only by you. Learn more »
launch autoscroll
font size
0
reset
how to read this tab
guitar tuner
edit
Autoscroll
slow
fast
+/-
esc
set tempo
stop
About this tab version
Fully structured tab with song timings. Easy to follow. Was this info helpful? Yes No
===========================================
Video Lesson to accompany this tab:
https://www.youtube.com/watch?v=NvjVWUp4N_o
===========================================



==================================

CHORDS USED:

   Cadd9     D      Em7    Emadd9

e|---3---|---2---|---3---|---2---|
B|---3---|---3---|---3---|---0---|
G|---0---|---2---|---0---|---0---|
D|---2---|---0---|---2---|---2---|
A|---3---|-------|---2---|---2---|
E|-------|-------|-------|-------|

==================================



[INTRO]
(all downstokes)
0.00 - 0.08
e|-3--3--3--3--3-3-|-2--2--2--2--2-2-|-3--3--3--3--3-3-|-2--2--2--2--2-2-|
B|-3--3--3--3--3-3-|-3--3--3--3--3-3-|-3--3--3--3--3-3-|-0--0--0--0--0-0-|
G|-0--0--0--0--0-0-|-2--2--2--2--2-2-|-0--0--0--0--0-0-|-0--0--0--0--0-0-| x1
D|-2--2--2--2--2-2-|-0--0--0--0--0-0-|-2--2--2--2--2-2-|-2--2--2--2--2-2-|
A|-3--3--3--3--3-3-|-----------------|-2--2--2--2--2-2-|-2--2--2--2--2-2-|
E|-----------------|-----------------|-----------------|-----------------|
   .....................................................................



[CHORUS]
0.09 - 0.28
"I don't wanna know know know, who's taking you home, home home..."
e|-3--3--3--3-3-3-3-3-|-2--2--2--2-2-2-2-2-|-3--3--3--3-3-3-3-3-|-2--2--2--2-2-2-2-2-|
B|-2--2--2--2-2-2-2-2-|-3--3--3--3-3-3-3-3-|-3--3--3--3-3-3-3-3-|-0--0--0--0-0-0-0-0-|
G|-0--0--0--0-0-0-0-0-|-2--2--2--2-2-2-2-2-|-0--0--0--0-0-0-0-0-|-0--0--0--0-0-0-0-0-| x2
D|-2--2--2--2-2-2-2-2-|-0--0--0--0-0-0-0-0-|-2--2--2--2-2-2-2-2-|-2--2--2--2-2-2-2-2-|
A|-3--3--3--3-3-3-3-3-|--------------------|-2--2--2--2-2-2-2-2-|-2--2--2--2-2-2-2-2-|
E|--------------------|--------------------|--------------------|--------------------|
   U  U  U  U D U D U  U  U  U  U D U D U    U  U  U  U D U D U   U  U  U  U D U D U



[VERSE]
0.29 - 0.48
"Wasted, and the more I drink the more I think about you..."
e|-3---------------|-2---------------|-3---------------|-2---------------|
B|-3---------------|-3---------------|-3---------------|-0---------------|
G|-0---------------|-2---------------|-0---------------|-0---------------| x2
D|-2---------------|-0---------------|-2---------------|-2---------------|
A|-3---------------|-----------------|-2---------------|-2---------------|
E|-----------------|-----------------|-----------------|-----------------|



[PRE-CHORUS]
0.49 - 1.05
"Do you think of me, of what we used to be..."
e|-3--3--3---------|-2--2--2---------|-3--3--3---------|-2--2--2---------|
B|-3--3--3---------|-3--3--3---------|-3--3--3---------|-0--0--0---------|
G|-0--0--0---------|-2--2--2---------|-0--0--0---------|-0--0--0---------| x2
D|-2--2--2---------|-0--0--0---------|-2--2--2---------|-2--2--2---------|
A|-3--3--3---------|-----------------|-2--2--2---------|-2--2--2---------|
E|-----------------|-----------------|-----------------|-----------------|
   U  U  U           U  U  U           U  U  U           U  U  U



[CHORUS]
1.06 - 1.26
"I don't wanna know know know, who's taking you home, home home..."
e|-3--3--3--3-3-3-3-3-|-2--2--2--2-2-2-2-2-|-3--3--3--3-3-3-3-3-|-2--2--2--2-2-2-2-2-|
B|-2--2--2--2-2-2-2-2-|-3--3--3--3-3-3-3-3-|-3--3--3--3-3-3-3-3-|-0--0--0--0-0-0-0-0-|
G|-0--0--0--0-0-0-0-0-|-2--2--2--2-2-2-2-2-|-0--0--0--0-0-0-0-0-|-0--0--0--0-0-0-0-0-| x2
D|-2--2--2--2-2-2-2-2-|-0--0--0--0-0-0-0-0-|-2--2--2--2-2-2-2-2-|-2--2--2--2-2-2-2-2-|
A|-3--3--3--3-3-3-3-3-|--------------------|-2--2--2--2-2-2-2-2-|-2--2--2--2-2-2-2-2-|
E|--------------------|--------------------|--------------------|--------------------|
   U  U  U  U D U D U  U  U  U  U D U D U    U  U  U  U D U D U   U  U  U  U D U D U



[VERSE]
1.27 - 1.45
"And every time I go out..."
e|-3---------------|-2---------------|-3---------------|-2---------------|
B|-3---------------|-3---------------|-3---------------|-0---------------|
G|-0---------------|-2---------------|-0---------------|-0---------------| x2
D|-2---------------|-0---------------|-2---------------|-2---------------|
A|-3---------------|-----------------|-2---------------|-2---------------|
E|-----------------|-----------------|-----------------|-----------------|



[PRE-CHORUS]
1.46 - 2.03
"Do you think of me, of what we used to be..."
e|-3--3--3---------|-2--2--2---------|-3--3--3---------|-2--2--2---------|
B|-3--3--3---------|-3--3--3---------|-3--3--3---------|-0--0--0---------|
G|-0--0--0---------|-2--2--2---------|-0--0--0---------|-0--0--0---------| x2
D|-2--2--2---------|-0--0--0---------|-2--2--2---------|-2--2--2---------|
A|-3--3--3---------|-----------------|-2--2--2---------|-2--2--2---------|
E|-----------------|-----------------|-----------------|-----------------|
   U  U  U           U  U  U           U  U  U           U  U  U



[CHORUS]
2.04 - 2.24
"I don't wanna know know know, who's taking you home, home home..."
e|-3--3--3--3-3-3-3-3-|-2--2--2--2-2-2-2-2-|-3--3--3--3-3-3-3-3-|-2--2--2--2-2-2-2-2-|
B|-2--2--2--2-2-2-2-2-|-3--3--3--3-3-3-3-3-|-3--3--3--3-3-3-3-3-|-0--0--0--0-0-0-0-0-|
G|-0--0--0--0-0-0-0-0-|-2--2--2--2-2-2-2-2-|-0--0--0--0-0-0-0-0-|-0--0--0--0-0-0-0-0-| x2
D|-2--2--2--2-2-2-2-2-|-0--0--0--0-0-0-0-0-|-2--2--2--2-2-2-2-2-|-2--2--2--2-2-2-2-2-|
A|-3--3--3--3-3-3-3-3-|--------------------|-2--2--2--2-2-2-2-2-|-2--2--2--2-2-2-2-2-|
E|--------------------|--------------------|--------------------|--------------------|
   U  U  U  U D U D U  U  U  U  U D U D U    U  U  U  U D U D U   U  U  U  U D U D U 



[RAP BREAK]
(PLAY INTRO -all downstokes)
2.25 - 2.42
e|-3--3--3--3--3-3-|-2--2--2--2--2-2-|-3--3--3--3--3-3-|-2--2--2--2--2-2-|
B|-3--3--3--3--3-3-|-3--3--3--3--3-3-|-3--3--3--3--3-3-|-0--0--0--0--0-0-|
G|-0--0--0--0--0-0-|-2--2--2--2--2-2-|-0--0--0--0--0-0-|-0--0--0--0--0-0-| x4
D|-2--2--2--2--2-2-|-0--0--0--0--0-0-|-2--2--2--2--2-2-|-2--2--2--2--2-2-|
A|-3--3--3--3--3-3-|-----------------|-2--2--2--2--2-2-|-2--2--2--2--2-2-|
E|-----------------|-----------------|-----------------|-----------------|
   .....................................................................


[CHORUS]
2.43 - 3.20
"I don't wanna know know know, who's taking you home, home home..."
e|-3--3--3--3-3-3-3-3-|-2--2--2--2-2-2-2-2-|-3--3--3--3-3-3-3-3-|-2--2--2--2-2-2-2-2-|
B|-2--2--2--2-2-2-2-2-|-3--3--3--3-3-3-3-3-|-3--3--3--3-3-3-3-3-|-0--0--0--0-0-0-0-0-|
G|-0--0--0--0-0-0-0-0-|-2--2--2--2-2-2-2-2-|-0--0--0--0-0-0-0-0-|-0--0--0--0-0-0-0-0-| x4
D|-2--2--2--2-2-2-2-2-|-0--0--0--0-0-0-0-0-|-2--2--2--2-2-2-2-2-|-2--2--2--2-2-2-2-2-|
A|-3--3--3--3-3-3-3-3-|--------------------|-2--2--2--2-2-2-2-2-|-2--2--2--2-2-2-2-2-|
E|--------------------|--------------------|--------------------|--------------------|
   U  U  U  U D U D U  U  U  U  U D U D U    U  U  U  U D U D U   U  U  U  U D U D U


[OUTRO]
(all downstokes)
3.21 - To End
"Hey, oh hey, oh hey..."
e|-3--3--3--3--3-3-|-2--2--2--2--2-2-|-3--3--3--3--3-3-|-2--2--2--2--2-2-|
B|-3--3--3--3--3-3-|-3--3--3--3--3-3-|-3--3--3--3--3-3-|-0--0--0--0--0-0-|
G|-0--0--0--0--0-0-|-2--2--2--2--2-2-|-0--0--0--0--0-0-|-0--0--0--0--0-0-| x1
D|-2--2--2--2--2-2-|-0--0--0--0--0-0-|-2--2--2--2--2-2-|-2--2--2--2--2-2-|
A|-3--3--3--3--3-3-|-----------------|-2--2--2--2--2-2-|-2--2--2--2--2-2-|
E|-----------------|-----------------|-----------------|-----------------|
   .....................................................................




************************************
| .   Palm Muted
************************************

            
            
Suggest correction
Creating personal tab
Creating personal tab
You can edit any tab online and save it as your Personal.

You can edit, replace or remove any tab part or add personal notes – all changes will be seen only by you.

Personal tabs can be accessed anytime from any device, even offline.
Learn more »
Give kudos to tab author, rate the tab!
1 2 3 4 5
comments
print report bad tab
guest
You may want to rate the tab now too:
select rating
Wanna post a correction for this tab? Suggest correction