Oops, an error
Loading. Please wait.

Figure It Out Tab

version 1
version 1

Whole song

Interactive

4,039 views 3 this week
1 commentread comment
1 2 3 4 5
excellent!
x 6
add to favorites
launch autoscroll
font size
0
reset
how to read this tab
guitar tuner
Autoscroll
slow
fast
+/-
esc
set tempo
stop
Help us to improve Ultimate-Guitar.com Take our survey!
×
Author
amrcidiot 108
-------------------------------------------------------------------------------
                             Figure It Out - Maroon 5
-------------------------------------------------------------------------------
Tabbed by: Amrcidiot
Email: bittybob2@hotmail.com

Tuning: Standard (E)(A)(D)(G)(B)(E)

Verse:
(Only Drums)

Chorus:
{We could spend some time together}
e|-------------9-9-9-9-----------------------2-2-2-2-------------------------|
B|-------------8-8-8-8-----------------------1-1-1-1-------------------------|
G|-----------------------x2--------------------------------------------------|
D|-2~-4~-5~---------------------7~-9~-10~----------------2~-4~-5~------------|
A|-2~-4~-5~---------------------7~-9~-10~----------------2~-4~-5~------------|
E|-0~-2~-3~---------------------5~-7~-8~-----------------0~-2~-3~------------|

Bridge:
e|----------3-3-3-0----------7-5-4-5-4-0--x4 (Tremolo bar down last time)---|
B|------0-3--------------0-3-------------------------------------------------|
G|---------------------------------------------------------------------------|
D|-2------------------2------------------------------------------------------|
A|-2------------------2------------------------------------------------------|
E|-0------------------0------------------------------------------------------|


I'm happy you came to me first
Before the bubble burst
I'm happy you answered my calls
I'm bouncing off the walls
Impossible to be tamed
Her need- celophane
I'm happy you like to play games
Why did you run away?

We could spend some time together
What he had he'll never know
Your boyfriend gives you no respect
And i can see your getting it
So lets figure it out let's go.

I'm happy you're so impulsive
Means that your passionate
Im happy you're moving so fast
But will it ever last
I know you wanna break free
From this monotony
I'm happy you're coming with me
But by choice its gotta be

We can spend some time together
What he has he'll never know
Your boyfriend gives you no respect
And i can see your getting it

So figure it out lets go

I'm happy you're changing your speed
Slow down and lay with me
On bottom but always discrete
Kneel down and kiss her feet
I'm happy your going too far
Full strength before we start
Sometimes you make it so hard
Scream loud as we come apart

We can spend some time together
What he had he'll never know
Your boyfriend gives you no respect
And i can see your getting it
So figure it out lets go

We can spend some time together
What he has he'll never know
Your boyfriend gives you no respect
And i can see your getting it
So figure it out lets go
Figure it out lets go
Figure it out lets go
Figure it out lets
Go

Please send all complaints or comments to bittybob2@hotmail.com
Thank You.
Suggest correction new What's this?
You can suggest a correction to this tab. Community and Mods will review your correction and vote to approve or reject it.
comments
print report bad tab
1 comment total.
0 reply
pkconnolly 11 wrote on April 30 2014, 09:07 pm

For the bridge, the 1st, 2nd and 4th times it's


e|----------3-3-3-0----------7-5-3-5-3-0----------|
B|------0-3--------------0-3----------------------|
G|------------------------------------------------|
D|-2------------------2---------------------------|
A|-2------------------2---------------------------|
E|-0------------------0---------------------------|

Only on the 3rd time is it

e|----------3-3-3-0----------7-5-4-5-4-0----------|
B|------0-3--------------0-3----------------------|
G|------------------------------------------------|
D|-2------------------2---------------------------|
A|-2------------------2---------------------------|
E|-0------------------0---------------------------|

guest
You may want to rate the tab now too:
select rating
Please do not post tabs as comments. Select "correction" instead!