Oops, an error
Loading. Please wait.

Goodnight Godnight Tab

version 1
version 1

Intro

Interactive

14,621 views 12 this week
4 commentsread comments
1 2 3 4 5
x 5
add to favorites
launch autoscroll
font size
0
reset
how to read this tab
guitar tuner
Autoscroll
slow
fast
+/-
esc
set tempo
stop
Help us to improve Ultimate-Guitar.com Take our survey!
×
Difficulty
Capo
novice
3rd fret
Artist: Maroon 5
Song: Goodnight Goodnight
Album: It won’t be soon before long

This is the intro and the first verse, I dunno what the chorus is yet, but maybe in the 
The timing is a bit funky so you’ll have to work it out as best you can from my tab.
I’ve put on top of the score the finger placements I used ,in chords, hope it helps.

Capo on 3	All finger placements and chord names are relative to the capo.


(0.00)	G#m			    G#m			    Emaj 7
e|-----------------------------------------------------------------------------|
B|-----------------------------------------------------------------------------|
G|----------4---------------------3----------------------4---------------------|
D|-------6—(6)--6-----6--------6—(6)--6----6—---------6-(6)--6-----6---------6-|
A|----6------------6--------6------------6---------6------------6---------6----|
E|-4----------------------4---------------------0----------------------0-------|

       E maj7b5
e|---------------|
B|---------------|
G|---3-----------|
D|--(6)-6----6---|
A|--------6------|
E|---------------|

(0.10)	G#m			    G#m			    Emaj 7
e|-----------------------------------------------------------------------------|
B|-----------------------------------------------------------------------------|
G|----------4---------------------3----------------------4---------------------|
D|-------6—(6)--6-----6--------6—(6)--6----6—---------6-(6)--6-----6---------6-|
A|----6------------6--------6------------6---------6------------6---------6----|
E|-4----------------------4---------------------0----------------------0-------|
You left me hanging from a thread…			I lick my wounds…
Her hair was pressed against…				In reach by things I said…

       E maj7b5
e|---------------|
B|---------------|
G|---3-----------|
D|--(6)-6----6---|
A|--------6------|
E|---------------|


(0.20)	 B			B maj 9#11(no 3rd)
E|---------------------------------------------|
B|---------------------------------------------|
G|-----------8--------------------6------------|
D|--------9-(9)-9----9---------9-(9)-9-----9---|
A|-----9----------9---------9-----------9------|
E|--7--------------------6---------------------|
Something’s gotta change…
Something’s gotta change…

Repeat without intro.

Tabbed by: Joey
Suggest correction
comments
print report bad tab
4 comments total. Showing first comments.
0 reply
stuartbartley 21 May 26, 2007 09:05 AM

its a lot simpler than that
Bm Bsus2 G
e|-----------------------------|---------------------------------|
B|-------3------------2--------|-------3---------------0---------|
G|-----4--4--4------4---4---4--|-----0---0---0-------0---0---0---|
D|---4-----4------4-------4----|-----------0---------------0-----|
A|-2------------2--------------|---2---------------2-------------|
E|-----------------------------|-3---------------3---------------|

0 reply
stuartbartley 21 May 26, 2007 09:10 AM

e|-----------------------------|---------------------------------|
B|-------3------------2--------|-------3---------------2---------|
G|-----4--4--4------4---4---4--|-----0---0---0-------0---0---0---|
D|---4-----4------4-------4----|-----------0---------------0-----|
A|-2------------2--------------|---2---------------2-------------|
E|-----------------------------|-3---------------3---------------|

0 reply
kay210 12 Jun 01, 2007 03:15 PM

Oh, come on! James Valentine NEVER use Capo...
It starts with a Bm...

Just like stuartbartley said...

guest
You may want to rate the tab now too:
select rating
Wanna post a correction for this tab? Suggest correction