Oops, an error
Loading. Please wait.

Harder To Breathe Tab

version 1
version 1
174,603 views 78 this week
7 commentsread comments
1 2 3 4 5
x 48
add to favorites
launch autoscroll
font size
0
reset
how to read this tab
guitar tuner
Autoscroll
slow
fast
+/-
esc
set tempo
stop
Help us to improve Ultimate-Guitar.com Take our survey!
×
[Verse]

e|--------------------|-----------------------|
B|--------------------|-----------------------|
G|--------------------|-----------------------|
D|--------------------|-------------------2-4-|
A|--2-4----2-4--------|--2-4----2-4---2-4-----|
E|-------------4------|-------------4---------|


[Chorus]

e|-------------------------------|
B|-------------------------------|
G|--6-------------4--------------|
D|--6--6-6-x-x-6--4--4-4---4---4-|
A|--4--6-6-x-x-6--2--4-4---4---4-|
E|-----4-4-x-x-4-----2-2-0-2-0-2-|


[Solo]

(over this scale).....improvise

e|-----------------------9-12-|                        e|------------------------|
B|-------------------9-12-----|                        B|------------------------|
G|---------------9-11---------|    it's something like G|--11b-11b---11r9-11r9---|
D|-----------9-11-------------|                        D|----------------------11|
A|-------9-11-----------------|                        A|------------------------|
E|--9-12----------------------|                        E|------------------------|


  and then
e|--14b-14b--r12-----|
B|---------------14--|
G|-------------------|
D|-------------------|
A|-------------------|
E|-------------------|



************************************

| x  Dead note
| r  Release
| b  Bend

************************************
Suggest correction
comments
print report bad tab
7 comments total. Showing first comments.
+4 reply
billebob666 31 Mar 02, 2007 04:56 PM

cool - the verse sounds better if you use powerchords tho XD

0 reply
MegaTastic 10 Apr 12, 2007 12:10 AM

all i can say is... AWESOME!!!

0 reply
MegaTastic 10 Apr 12, 2007 12:14 AM

wat does b and r stand for?

guest
You may want to rate the tab now too:
select rating
Wanna post a correction for this tab? Suggest correction