Oops, an error
Loading. Please wait.

I Cant Lie Bass Tab

version 2
version 2

Whole song

746 views 3 this week
no commentswrite comment
1 2 3 4 5
please rate
add to favorites
launch autoscroll
font size
0
reset
guitar tuner
Autoscroll
slow
fast
+/-
esc
set tempo
stop
Help us to improve Ultimate-Guitar.com Take our survey!
×
Author
Difficulty
novice
I Can't Lie - Maroon 5
Bass Tab

Intro 
G ---------------------------------------------|
D ---------------------------------------------|
A ---------------------------------------------|
E -3--3-3--3--3-3--3--3-3--5--5-5--5--5-5------|

Stanza 1
G ---------------------------------------------|
D ---------------------------------------------|
A ---------------------------------------------|
E -3--3-3--3--3-3--5--5-5--5--5-5--------------|

G ---------------------------------------------|
D ---------------------------------------------|
A ---------------------------------------------|
E -3--3-3--3--3-3-3-5--5-5--5-5-5--------------|

Refrain
G ---------------------------------------------|
D ---------------------0-2-2-0-2-5-------------|
A ----0-2--2-2---0-2---------------------------|
E-0-3----------3-----0-------------------------|

G ---------------------------------------------|
D ---------------------------------------------|
A --------------5--5-5-------------------------|
E -5--5-5-3-0-3--------------------------------|

Chorus
G ---------------------------------------------|
D -----5-5-----------5-5-----------------------|
A ---------7-5-7---------7-5-7-----------------|
E -3-3-----------3-3---------------------------|

G -------------------------7-7-5-4-5-----------|
D -----5-7-7-----------------------------------|
A -----------7-5-7--5-5--5---------------------|
E -5-5-----------------------------------------|

Stanza 2
G ---------------------------------------------|
D -----5-5-----------5-5-----------------------|
A ---------7-5-7---------7-5-7-----------------|
E -3-3-----------3-3---------------------------|

G ---------------------------------------------|
D ------5-5---------------5-5------------------|
A ------------7-5-7------------7-5-7-----------|
E -5-5---------------5-5-----------------------|

Refrain
G ---------------------------------------------|
D -----------------0-2-2-0-2-5-----------------|
A -2--2-2---0-2--------------------------------|
E --------3------0-----------------------------|

G ---------------------------------------------|
D ---------------------------------------------|
A --------------5--5-5-------------------------|
E -5--5-5-3-0-3--------------------------------|

Chorus
G ---------------------------------------------|
D -----5-5-----------5-5-----------------------|
A ---------7-5-7---------7-5-7-----------------|
E -3-3-----------3-3---------------------------|

G -------------------------7-7-5-4-5-----------|
D -----5-7-7-----------------------------------|
A -----------7-5-7--5-5--5---------------------|
E -5-5-----------------------------------------|

Lead
G -4-7------4---------4------------------------|
D ------5-7---7-5-5-7---2-5-0-2-5------7-------|
A ---------------------------------5-7---5-7---|
E ---------------------------------------------|

G---------------4-5-7-7-7----------------------|
D-7-7-7-----5-7--------------------------------|
A-------5-7------------------------------------|
E----------------------------------------------|

G-4-7-----4---------4--------------------------|
D-----5-7---7-5-5-7---2-5-0-2-5-----7----------|
A-------------------------------5-7---5-7------|
E----------------------------------------------|

G---------------4-5-7-7-7-7-7------------------|
D-7-7-7-----5-7---------------5-7--------------|
A-------5-7------------------------------------|
E----------------------------------------------|

Refrain
G----------------------------------------------|
D----------------0-2-2-0-2-5-------------------|
A-2--2-2---0-2---------------------------------|
E--------3-----0-------------------------------|

G----------------------------------------------|
D-----5-5-----------2-2---2-5------------------|
A---------7-5-7-5-5-----5----------------------|
E-5-5------------------------------------------|

G----------------------------------------------|
D-----5-5--------------------------------------|
A---------7-5-7-5-5-5-5------------------------|
E-5-5------------------------------------------|

Chorus
G ---------------------------------------------|
D -----5-5-----------5-5-----------------------|
A ---------7-5-7---------7-5-7-----------------|
E -3-3-----------3-3---------------------------|

G -------------------------7-7-5-4-5-----------|
D -----5-7-7-----------------------------------|
A -----------7-5-7--5-5--5---------------------|
(Repeat chorus 5x)
Suggest correction new What's this?
You can suggest a correction to this tab. Community and Mods will review your correction and vote to approve or reject it.
comments
We did not receive enough feedback on this tab! Please rate:
print report bad tab
1 2 3 4 5
guest
You may want to rate the tab now too:
select rating
Please do not post tabs as comments. Select "correction" instead!