Oops, an error
Loading. Please wait.

If I Aint Got You Bass Tab

997 views 3 this week
no commentswrite comment
1 2 3 4 5
excellent!
x 3
add to favorites
launch autoscroll
font size
0
reset
guitar tuner
Tab Pro tools
  • play this tab
  • loop segment
  • change instrument
  • show fretboard
  • metronome
×
Best way to learn
"If I Aint Got You"
Autoscroll
slow
fast
+/-
esc
set tempo
stop
Contributor
If I Ain't Got You
Maroon 5
Tabbed by: avill616@yahoo.com

Intro 
G|-----------------|
D|-----------------|
A|-10~--9~--7~--5~-|2x
E|-----------------|

Verse 
G|------------------------|----------------------------|
D|------------------------|----------------------------|
A|-5~-------7~------------|-5~-----------7-------------|
E|-----7~~------5--5h7--5-|-----3-5-7---7----5--5h7--5-|

Bridge 
G|-------------------------------------------------------------------------|
D|-------------------------------------------------------------------------|
A|-5---7---9-10-9-7---5---7---9--10-9-7-5---7---9--9-7---5---7---9---5-7-9-|
E|-------------------------------------------------------------------------|

Chorus 
G|---------------------------------------------|
D|---------------------------------------------|
A|-10--10-10---9--9-9-10-9-7--7-7-9-7-5--5-7-9-|
E|---------------------------------------------|

G|--------------------------------------|
D|--------------------------------------|
A|-10--10-10---9--9-9-10-9-7--7-7-9-7-5-|
E|--------------------------------------|

Verse2
G|---------------------------|------------------------|
D|---------------------------|----------------------7-|
A|-5~--------7~--------------|-5~-----------7------7--|
E|------7~--------5~--5h7--5-|-----3-5-7---7---5--5---|

Repeat bridge
Repeat chorus

G|-------------|------------------------9--------7-7-------|
D|-------------|-----------------------9--9-----7----------|
A|-5-5-5-5-7-9-|-10--10-10---9--9-9---7----9-7-5-----5-7-9-|
E|-------------|-------------------------------------------|

G|------------------------------9--------------|
D|-----------------------------9---------------|
A|-10--10-10---9--9-9-10-9-7--7---9-7-5--5-7-9-|
E|---------------------------------------------|
comments
We did not receive enough feedback on this tab! Please rate:
print report bad tab
1 2 3 4 5
I want to post or [tab]
guest
You may want to rate the tab now too:
select rating
Please do not post tabs as comments. Select "correction" instead!