Oops, an error
Loading. Please wait.

If I Never See Your Face Again Tab

72,318 views 48 this week
7 commentsread comments
1 2 3 4 5
x 12
add to favorites
launch autoscroll
font size
0
reset
how to read this tab
guitar tuner
Autoscroll
slow
fast
+/-
esc
set tempo
stop
Help us to improve Ultimate-Guitar.com Take our survey!
×
Difficulty
novice
If I Never See Your Face Again - Maroon 5

Guitar 1 [Intro] (Clean, Reverb)        x2
e|--------------------------------------|
B|-7-------11-11------7---7-9--X-9-\-6--|
G|-8-------11-11------8---8-10-X-10\-6-o|
D|-------------------------------------o|
A|--------------------------------------|
E|--------------------------------------|

(0:09)
Guitar 1- [Chorus] (Clean, Reverb)       x2
e|--------------------------------------|
B|-7-------11-11------7---7-9--X-9-\-6--|
G|-8-------11-11------8---8-10-X-10\-6-o|
D|-------------------------------------o|
A|--------------------------------------|
E|--------------------------------------|

Guitar 2- [Chorus] (Light Distortion)    x2
e|--------------------------------------|
B|--------------------------------------|
G|-------------------------------------o|
D|-6---------4--XX-4/6---X-6---X-8--9--o|
A|-6---------4--XX-4/6---X-6---X-8--9---|
E|-4-----2-2-2--XX-2/4---X-4---X-6--7---|

(0:18)
[Verse] Guitar 1 (Clean)                      x4
e|--------------------------------------------|
B|-12--12-----12--12-----12--12-------12-12~~-|
G|-11--11-----11--11-----11--11-------11-11~~o|
D|-------------------------------------------o|
A|--------------------------------------------|
E|--------------------------------------------|

(0:37)
[Verse Part 2] Guitar 2 (Light Dist., Reverb) x2
e|--------------------------------------------|
B|--------------------------------------------|
G|o------------------------------------4------|
D|o-6-6----6-6----6-6---------4----4h6--------|
A|-----------------------4h6------------------|
E|--------------------------------------------|

e|--------------------------------------------|
B|--------------------------------------------|
G|--------------------------6-6----5-5----4--o|
D|-6-6----6-6----6-6-------------------------o|
A|--------------------------------------------|
E|--------------------------------------------|

(0:55)
Guitar 1 [Chorus 2] (Clean, Reverb)     x4
e|--------------------------------------|
B|-7-------11-11------7---7-9--X-9-\-6--|
G|-8-------11-11------8---8-10-X-10\-6-o|
D|-------------------------------------o|
A|--------------------------------------|
E|--------------------------------------|

Guitar 2 [Chorus 2](Light Distortion)   x3
e|--------------------------------------|
B|--------------------------------------|
G|-------------------------------------o|
D|-6---------4--XX-4/6---X-6---X-8--9--o|
A|-6---------4--XX-4/6---X-6---X-8--9---|
E|-4-----2-2-2--XX-2/4---X-4---X-6--7---|

(1:08)
Guitar 2 Last Measure of [Chorus 2]
e|--------------------------------------|
B|--------------------------------------|
G|--------------------------------------|
D|-4---------4--------11\--5------------|
A|-4---------4--------11\--5------------|
E|-2---------2--------9-\--3------------|

(1:12)
Guitar 1 [Bridge] (Clean, Reverb)
e|--------------------------------------|
B|-7-------11-11------7---7-9--X-9-\-6--|
G|-8-------11-11------8---8-10-X-10\-6-o|
D|-------------------------------------o|
A|--------------------------------------|
E|--------------------------------------|

Guitar 2 [Bridge[ (Light Distortion)
e|--------------------------------------|
B|--------------------------------------|
G|-------------------------------------o|
D|-6---------4--XX-4/6---X-6---X-8--9--o|
A|-6---------4--XX-4/6---X-6---X-8--9---|
E|-4-----2-2-2--XX-2/4---X-4---X-6--7---|

(1:17)
[Verse 2] Guitar 1 (Clean)                    x4
e|--------------------------------------------|
B|-12--12-----12--12-----12--12-------12-12~~-|
G|-11--11-----11--11-----11--11-------11-11~~o|
D|-------------------------------------------o|
A|--------------------------------------------|
E|--------------------------------------------|

(1:35)
[Verse 2 Part 2] Guitar 2 (Light Dist, Reverb)x2
e|--------------------------------------------|
B|--------------------------------------------|
G|o------------------------------------4------|
D|o-6-6----6-6----6-6---------4----4h6--------|
A|-----------------------4h6------------------|
E|--------------------------------------------|

e|--------------------------------------------|
B|--------------------------------------------|
G|--------------------------6-6----5-5----4--o|
D|-6-6----6-6----6-6-------------------------o|
A|--------------------------------------------|
E|--------------------------------------------|

(1:53)
Guitar 1 [Chorus 3] (Clean, Reverb)     x4
e|--------------------------------------|
B|-7-------11-11------7---7-9--X-9-\-6--|
G|-8-------11-11------8---8-10-X-10\-6-o|
D|-------------------------------------o|
A|--------------------------------------|
E|--------------------------------------|

Guitar 2 [Chorus 3] (Light Distortion)   x3
e|--------------------------------------|
B|--------------------------------------|
G|-------------------------------------o|
D|-6---------4--XX-4/6---X-6---X-8--9--o|
A|-6---------4--XX-4/6---X-6---X-8--9---|
E|-4-----2-2-2--XX-2/4---X-4---X-6--7---|

(2:07)
Guitar 2 [Last Measure of Chorus 3]
e|--------------------------------------|
B|--------------------------------------|
G|--------------------------------------|
D|-4---------4--------11\--5------------|
A|-4---------4--------11\--5------------|
E|-2---------2--------9----3------------|

(2:11)
Guitar 2 [Pre-Breakdown] (Light Distortion)
e|--------------------|
B|--------------------|
G|--------------------|
D|-4---------4--------|
A|-4---------4--------|
E|-2---------2--------|

(2:14) Guitar 1 [Breakdown] (Clean) x2
e|----------------------------------|
B|-7-------------7-------14---------|
G|-6-------------6-------13--------o|
D|-4-------------4-------11--------o|
A|-4-------------4-------11---------|
E|----------------------------------|

(2:32)
Guitar 1 [Breakdown] (Clean, Reverb)    x4
e|--------------------------------------|
B|-7-------11-11------7---7-9--X-9-\-6--|
G|-8-------11-11------8---8-10-X-10\-6-o|
D|-------------------------------------o|
A|--------------------------------------|
E|--------------------------------------|

(2:50)
Guitar 1 [Chorus 4] (Clean, Reverb)     x4
e|--------------------------------------|
B|-7-------11-11------7---7-9--X-9-\-6--|
G|-8-------11-11------8---8-10-X-10\-6-o|
D|-------------------------------------o|
A|--------------------------------------|
E|--------------------------------------|

Guitar 2 [Chorus 4] (Light Distortion)   x3
e|--------------------------------------|
B|--------------------------------------|
G|-------------------------------------o|
D|-6---------4--XX-4/6---X-6---X-8--9--o|
A|-6---------4--XX-4/6---X-6---X-8--9---|
E|-4-----2-2-2--XX-2/4---X-4---X-6--7---|

(3:03)
Guitar 2 [Last Measure of Chorus 4]
e|--------------------------------------|
B|--------------------------------------|
G|--------------------------------------|
D|-4---------4--------11\--5------------|
A|-4---------4--------11\--5------------|
E|-2---------2--------9----3------------|

(3:08) [Outro] Guitar 2                 x2
e|--------------------------------------|
B|--------------------------------------|
G|-------------------------------------o|
D|-6---XX-6--XXX--XXX-6---6---8\4------o|
A|-6---XX-6--XXX--XXX-6---6---8\4-------|
E|-4---XX-4--XXX--XXX-4---4---6\2-------|

************************************

| \  Slide down
| /  Slide up
| ~  Vibrato
| h  Hammer-on

************************************
Suggest correction
comments
print report bad tab
7 comments total. Showing first comments.
0 reply
XxrokknrollxX 37 Jul 02, 2007 04:47 PM

Maroon 5 is a great band!!!
This tab is off da hook!!!
it doesnt sound like it at first but if u play it on electric w/ reverb it sounds incredible!!!

+2 reply
DrWodka 1,088 Jan 07, 2008 09:11 AM


e|----------6--6------------------------|
B|-7--------7--7-----7---7-9--X-9-\-6--|
G|-8-----------------8---8-10-X-10\-6--o|
D|-------------------------------------o|
A|--------------------------------------|
E|--------------------------------------|



i saw them live and this is the way m5 play it...otherwise great tab!

0 reply
guitarmasta8179 10 Jun 26, 2008 07:42 PM

awesome

guest
You may want to rate the tab now too:
select rating
Wanna post a correction for this tab? Suggest correction