Oops, an error
Loading. Please wait.

Kiwi Bass Tab

version 2
version 2

Whole song

Interactive

459 views 1 this week
no commentswrite comment
1 2 3 4 5
3 more votes to show rating
add to favorites
launch autoscroll
font size
0
reset
guitar tuner
Autoscroll
slow
fast
+/-
esc
set tempo
stop
Help us to improve Ultimate-Guitar.com Take our survey!
×
Author
Difficulty
novice
Kiwi- Maroon 5
Tabbed by CaptainNuge
Standard tuning

1st verse:

G|-------------------------------------------------------------------|
D|-------2---0---2---0-----------------------------------------------|
A|-------------------------------------------------------------------|
E|--0--------------------0---0---------------0--0--------------------|


Pre chorus: (Repeat twice)
G|-------------------------------------------------------------------|
D|--2-2-------0-0----------------------------------------------------|
A|-------2-2-------0-0---------0---0-0-------------------------------|
E|-------------------------------------------------------------------|

G|-------------------------------------------------------------------|
D|--2-2-------0-0----------------------------------------------------|
A|-------2-2-------0-----------0---0-0-------------------------------|
E|-------------------------------------------------------------------|


Chorus:

G|-------------------------------------------------------------------|
D|-------2---0---2---0-----------------------------------------------|
A|-------------------------------------------------------------------|
E|--0--------------------0---0---------------0--0--------------------| (x2)


G|-------------------------------------------------------------------|
D|--0----0-------0-------0---0---------------0--0--------------------|
A|-----------3-------3-----------------------------------------------|
E|-------------------------------------------------------------------|

G|-------------------------------------------------------------------|
D|-------2---0---2---0-----------------------------------------------|
A|-------------------------------------------------------------------|
E|--0--------------------0---0---------------0--0--------------------|


Bridge:

G|---------------------------0--0--0-0-------------------------------|
D|-2--2--2-2---------------------------------------------------------|
A|-------------3--3--3-3--------------------2--2--2-2----------------|
E|-------------------------------------------------------------------|


Chorus:

As before

Chorus:

Repeat final line of the chorus 5 times before solo

Solo:
Play the same notation as the chorus
Suggest correction
Give kudos to tab author, rate the tab!
1 2 3 4 5
comments
print report bad tab
guest
You may want to rate the tab now too:
select rating
Wanna post a correction for this tab? Suggest correction