Oops, an error
Loading. Please wait.

Makes Me Wonder Bass Tab

version 1
version 1

Whole song

Interactive

15,501 views 9 this week
2 commentsread comments
1 2 3 4 5
accurate
x 3
add to favorites
launch autoscroll
font size
0
reset
guitar tuner
Autoscroll
slow
fast
+/-
esc
set tempo
stop
Help us to improve Ultimate-Guitar.com Take our survey!
×
Difficulty
novice
There weren't any bass tabs for this song, so I decided to do it myself. This is my 
tab, so it's far from perfect. Please point out mistakes so I can get it right. Enjoy!

Guitar starts

INTRO (0:08)

E------------------------------------------------------------|
A--------------0---------------------------------------------|
D---2----2-------2-0----0----0------------5-0-2----0---0-1-2-|
G----------------------------------3----3--------------------|

VERSE 1 (0:17)

E----------------------------------------------------------|
A----------------------------------------------------------|
D---2---2-0----0---0-----------0-1----0---0-1-2------------|
G-----------------------4----4-----------------------------|

E----------------------------------------------------------|
A----------------------------------------------------------|
D---2---2-0----0---0-----------0-1-------------------------|
G-----------------------4----4-----------------------------|

PRE-CHORUS (0:32)

E----------------------------------------------------------|
A----------------------------------------------------------|
D---2-0--------0----0-0-0---------0-0-2-0---------0----1---|
G-------3-3-3-1------------3-3-3-1-------3---3-3-1---------|

CHORUS 1 (0:46)

E----------------------------------------------------------------------|
A--------------0---------------------------------------0---0-0-0-1-2---|
D---2----2-2----2-0----------0-------------0---------------------------|
G----------------------3---------3-----3-2---1---3-3-3-----------------|

E----------------------------------------------------------------------|
A--------------0-------------------------------------------------------|
D---2----2-2----2-0----------0--------------0--------------------------|
G----------------------3----------3-----3-3---3-2----------------------|

VERSE 2 (1:03)

E----------------------------------------------------------------------|
A----------------------------------------------------------------------|
D---2---2-0-----0-----------------------0---0---------0--0--0--0-1-2---|
G-------------------3-------3---3-2------------3-----------------------|

E----------------------------------------------------------------------|
A----------------------------------------------------------------------|
D---2---2-0-----0-----------------------0---0--------------------------|
G-------------------3-------3---3-2------------3-----------------------|

PRE-CHORUS (1:19)

E----------------------------------------------------------------------|
A----------------------------------------------------------------------|
D---2-0-----------0----0-0-0------------0-0-2-0------------0-------1---|
G--------3-3-3-1---------------3-3-3-1----------3----3-3-1-------------|

CHORUS 2 (1:32)

E---------------------------------------------------------------------------|
A--------------0------------------------------------------------------------|
D---2----2-2----2-0----------0-----------------------------------0----0-1-2-|
G----------------------3----------2-2-3-2----2-3-3-3-3----------------------|

E---------------------------------------------------------------------------|
A--------------0------------------------------------------------------------|
D---2----2-2----2-0----------0-----------------------------------0----0-1-2-|
G----------------------3----------2-2-3-2----2-3-3-3-3----------------------|

E---------------------------------------------------------------------------|
A--------------0-------------------------------------0----------------------|
D---2----2-2----2-0----------0-----------------------0-0-2-----0----0-1-2---|
G----------------------3----------2-2-3-2----2-3----------------------------|

E---------------------------------------------------------------------------|
A--------------0------------------------------------------------------------|
D---2----2-2----2-0----------0-------------------0--------------------------|
G----------------------3----------2-2-3-2----3-3---3-2----------------------|

BRIDGE (2: 06)

E-----------------------------------------------------|
A-----------------------------------------------------|
D---------------------------2-----------------0---2---|
G---3--------3-2--------2-----------2---3-------------|

E-----------------------------------------------------|
A-----------------------------------------------------|
D---0----------------------------------2-2-0----------|
G-----3--------3-2--------2-2----------------3--------|

PRE-CHORUS (2:23)

E---------------------------------------------------------------------------|
A---------------------------------------------------------------------------|
D--------------0--------------0----2-0---------------0----------------------|
G---3-3-3-1-------3-3-3-1------------3--------------------1-------------/12-|

CHORUS 3 (2:40)

E---------------------------------------------------------------------------|
A--------------0------------------------------------------------------------|
D---2----2-2----2-0----------0-----------------------------------0----0-1-2-|
G----------------------3----------2-2-3-2----2-3-3-3-3----------------------|

E---------------------------------------------------------------------------|
A--------------0------------------------------------------------------------|
D---2----2-2----2-0----------0-----------------------------------0----0-1-2-|
G----------------------3----------2-2-3-2----2-3-3-3-3----------------------|

E---------------------------------------------------------------------------|
A--------------0-------------------------------------0----------------------|
D---2----2-2----2-0----------0-----------------------0-0-2-----0----0-1-2---|
G----------------------3----------2-2-3-2----2-3----------------------------|

E---------------------------------------------------------------------------|
A--------------0------------------------------------------------------------|
D---2----2-2----2-0----------0-------------------0--------------------------|
G----------------------3----------2-2-3-2----3-3---3-2----------------------|

OUTRO (3:13)

E---------------------------------------------------------------------------|
A--------------0-------------------------------------------0----------------|
D---2----2-2----2-0-------0---0-0---0-------------0-0---0-1-2----2-2-2-2-2--|
G----------------------3--------------------3---2---------------------------|

E---------------------------------------------------------------------------|
A--------------0-------------------------------------------0----------------|
D---2----2-2----2-0-------0---0-0---0-------------0-0---1-2-----------------|
G----------------------3--------------------3---2---------------------------|

END
Suggest correction
What's this?
You can suggest a correction to this tab. Community and Mods will review your correction and vote to approve or reject it.
comments
We did not receive enough feedback on this tab! Please rate:
print report bad tab
1 2 3 4 5
2 comments total.
0 reply
ashley-morton 41 wrote on October 20 2008, 11:19 am

Not a bad tab

0 reply
Tim.Colborne 53 wrote on January 15 2009, 11:11 am

you have Tabed this upside down! Its supposed to be
G E
D A
A D
E not G
Version 2 is cleaner

guest
You may want to rate the tab now too:
select rating
Please do not post tabs as comments. Select "correction" instead!