Oops, an error
Loading. Please wait.

Misery Tab

version 1
version 1

Acoustic

Whole song

Interactive

25,205 views 42 this week
1 commentread comment
1 2 3 4 5
x 7
add to favorites
launch autoscroll
font size
0
reset
how to read this tab
guitar tuner
Autoscroll
slow
fast
+/-
esc
set tempo
stop
Help us to improve Ultimate-Guitar.com Take our survey!
×
Misery(acoustic version) - Maroon 5

Tabbed by: LennonsDisciple - 23/5/12 - The most accurate asian tabber as voted by 
Playboy magazine. Check me LennonsDisciple on youtube
Email: nhanngo123@gmail.com for any questions.

Tuning: Tune back 1 semitone
Maroon 5 recorded this 1 semitone lower.. so tune your guitar back 1 semitone if 
you want to play along with the record. 

This is a fun finger picking song. Heard it on youtube and thought I'd tab it out 
as a teaser for you guys. 

[Intro and Verse]
e|--------------------------|--------------------------|
B|--------------------------|--------------------------|
G|-----------0-----------0--|-----------0-----------0--|
D|-----2-----------2--------|-----2-----------2--------|
A|--------3-----------3-----|--------3-----------3-----|
E|--3-----------3-----------|--3-----------3-----------|
                                                     
e|--------------------------|--------------------------|
B|--------------------------|--------------------------|
G|-----------2-----------2--|-----------2-----------2--|
D|-----1-----------1--------|-----1-----------1--------|
A|--------2-----------2-----|--------2-----------2-----|
E|--2-----------2-----------|--2-----------2-----------|
                                                      
e|--------------------------|--------------------------|
B|--------------------------|--------------------------|
G|-----------0-----------0--|-----------0-----------0--|
D|-----2-----------2--------|-----2-----------2--------|
A|--------3-----------3-----|--------3-----------3-----|
E|--3-----------3-----------|--3-----------3-----------|
                                               
e|--------------------------|--------------------------|
B|-----------------------0--|--------------------------|
G|-----------2--------------|-----------2-----------0--|
D|-----1-----------1--------|-----1-----------1--------|
A|--------2-----------2-----|--------2-----------2-----|
E|--2-----------2-----------|--2-----------2-----------|

[Pre-Chorus]
  C   so let me be..............                                              
e|--------------------------|--------------------------|
B|-----------1-----------1--|-----------1-----------1--|
G|-----0-----------0--------|-----0-----------0--------|
D|--------2-----------2-----|--------2-----------2-----|
A|--3-----------3-----------|--3-----------3-----------|
E|--------------------------|--------------------------|

  B7  now set you  free......                                                  
e|--------------------------|--------------------------|
B|-----------0-----------0--|-----------0-----------0--|
G|-----2-----------2--------|-----2-----------2--------|
D|--------1-----------1-----|--------1-----------1-----|
A|--2-----------2-----------|--2-----------2-----------|
E|--------------------------|--------------------------|

[Chorus]
  Em  I am in                   Am                          
e|--------------------------|--------------------------|
B|--------------------------|-----------1-----------1--|
G|-----------0-----------0--|-----2-----------2--------|
D|-----2-----------2--------|--------2-----------2-----|
A|--------2-----------2-----|--0-----------0-----------|
E|--0-----------0-----------|--------------------------|

    D                           G                       
e|--------------------------|--------------------------|
B|-----------3-----------3--|-----------3-----------3--|
G|-----2-----------2--------|-----0-----------0--------|
D|--0-----0-----0-----0-----|--------0-----------0-----|
A|--------------------------|--------------------------|
E|--------------------------|--3-----------3-----------|

   Em                          Am
e|--------------------------|--------------------------|
B|--------------------------|-----------1-----------1--|
G|-----------0-----------0--|-----2-----------2--------|
D|-----2-----------2--------|--------2-----------2-----|
A|--------2-----------2-----|--0-----------0-----------|
E|--0-----------0-----------|--------------------------|

   D                            G                         
e|--------------------------|--------------------------||
B|-----------3-----------3--|-----------3-----------3--||
G|-----2-----------2--------|-----0-----------0--------||
D|--0-----0-----0-----0-----|--------0-----------0-----||
A|--------------------------|--------------------------||
E|--------------------------|--3-----------3-----------||

The "girl you really got me bad" part is just Em, Am , D and G play in different fret position.
Suggest correction
comments
print report bad tab
1 comment total.
0 reply
spam281088 10 Dec 21, 2015 01:50 PM

you forgot the bridge ;)
i guess it's almost like this:
Bm7-Am-D7-G
Bm7-Am-C-Bsus2

guest
You may want to rate the tab now too:
select rating
Wanna post a correction for this tab? Suggest correction