Oops, an error
Loading. Please wait.
We have an official Moves Like Jagger tab made by UG professional guitarists. Check out the tab »
×
52,086 views 48 this week
1 commentread comment
1 2 3 4 5
x 9
add to favorites
launch autoscroll
font size
0
reset
guitar tuner
backing track
0:00
0:00
Autoscroll
slow
fast
+/-
esc
set tempo
stop
Author
[Intro] (whistle)
G|-----------------------------------------------------------------|
D|-----------------------------------------------------------------|
A|---------------------------------7-7-7-7-7-7-7-7-7-7-7-7-7-7-7-7-|
E|-7-7-7-7-7-7-7-7-7-7-7-7-7-7-7-7---------------------------------|

[Verse 1]
G|-----------------------------------------------------------------|
D|-----------------------------------------------------------------|
A|---------------------------------7-7-7-7-7-7-7-7-7-7-7-7-7-7-7-7-|(2x)
E|-7-7-7-7-7-7-7-7-7-7-7-7-7-7-7-7---------------------------------|

[Chorus]  
G|-----------------------------------------------------------------|
D|-----------------------------------------------------------------|
A|---------------------------------7-7-7-7-7-7-7-7-7-7-7-7-7-7-7-7-|
E|-7-7-7-7-7-7-7-7-7-7-7-7-7-7-7-7---------------------------------|

G|-------------------------------------------------|
D|-------------------------------------------------|
A|---------------------------------7-7-7-7-7-7-7-7-|
E|-7-7-7-7-7-7-7-7-7-7-7-7-7-7-7-7-----------------|

G|-------4-2---------------|
D|-----------4-2-0--0--2---|
A|-2-4-5-----------------2-| (whistle) optional you can play it or not.
E|-------------------------|

G|-------------------------------------------------|
D|-------------------------------------------------|
A|---------------------------------7-7-7-7-7-7-7-7-|
E|-7-7-7-7-7-7-7-7-7-7-7-7-7-7-7-7-----------------|

G|-------4-2---------------|
D|-----------4-2-0--0--2---|
A|-2-4-5-----------------2-| (whistle) optional you can play it or not.
E|-------------------------|

[Verse 2]
G|-----------------------------------------------------------|
D|-----------------------------------------------------------|
A|---------------------------------7-7-7-7-7-7-7-7-7-7-7-7-7-|
E|-7-7-7-7-7-7-7-7-7-7-7-7-7-7-7-7---------------------------|

G|-----------------------------------------------------------------|
D|-----------------------------------------------------------------|
A|---------------------------------7-7-7-7-7-7-7-7-7-7-7-7-7-7-7-7-|
E|-7-7-7-7-7-7-7-7-7-7-7-7-7-7-7-7---------------------------------|

[Chorus]  
G|-----------------------------------------------------------------|
D|-----------------------------------------------------------------|
A|---------------------------------7-7-7-7-7-7-7-7-7-7-7-7-7-7-7-7-|
E|-7-7-7-7-7-7-7-7-7-7-7-7-7-7-7-7---------------------------------|

G|-------------------------------------------------|
D|-------------------------------------------------|
A|---------------------------------7-7-7-7-7-7-7-7-|
E|-7-7-7-7-7-7-7-7-7-7-7-7-7-7-7-7-----------------|

G|-------4-2---------------|
D|-----------4-2-0--0--2---|
A|-2-4-5-----------------2-| (whistle) optional you can play it or not.
E|-------------------------|

G|-------------------------------------------------|
D|-------------------------------------------------|
A|---------------------------------7-7-7-7-7-7-7-7-|
E|-7-7-7-7-7-7-7-7-7-7-7-7-7-7-7-7-----------------|

G|-------4-2---------------|
D|-----------4-2-0--0--2---|
A|-2-4-5-----------------2-| (whistle) optional you can play it or not.
E|-------------------------|

[Verse 1]
G|-----------------------------------------------------------------|
D|-----------------------------------------------------------------|
A|---------------------------------7-7-7-7-7-7-7-7-7-7-7-7-7-7-7-7-|(2x)
E|-7-7-7-7-7-7-7-7-7-7-7-7-7-7-7-7---------------------------------|

[Chorus]  
G|-----------------------------------------------------------------|
D|-----------------------------------------------------------------|
A|---------------------------------7-7-7-7-7-7-7-7-7-7-7-7-7-7-7-7-|
E|-7-7-7-7-7-7-7-7-7-7-7-7-7-7-7-7---------------------------------|

G|-------------------------------------------------|
D|-------------------------------------------------|
A|---------------------------------7-7-7-7-7-7-7-7-|
E|-7-7-7-7-7-7-7-7-7-7-7-7-7-7-7-7-----------------|

G|-------4-2---------------|
D|-----------4-2-0--0--2---|
A|-2-4-5-----------------2-| (whistle) optional you can play it or not.
E|-------------------------|

G|-------------------------------------------------|
D|-------------------------------------------------|
A|---------------------------------7-7-7-7-7-7-7-7-|
E|-7-7-7-7-7-7-7-7-7-7-7-7-7-7-7-7-----------------|

G|-------4-2---------------|
D|-----------4-2-0--0--2---|
A|-2-4-5-----------------2-| (whistle) optional you can play it or not.
E|-------------------------|
Suggest correction
comments
print report bad tab
1 comment total.
0 reply
emrecankudun1 10 Aug 09, 2016 12:39 AM

G|-------4-2---------------|
D|-----------4-2-0--0--2---|
A|-2-5-2-----------------2-| That's true. Thanks.
E|-------------------------|

guest
You may want to rate the tab now too:
select rating
Wanna post a correction for this tab? Suggest correction