Oops, an error
Loading. Please wait.

Never Gonna Leave This Bed Bass Tab

version 1
version 1

Whole song

Interactive

6,542 views 6 this week
no commentswrite comment
1 2 3 4 5
please rate
add to favorites
launch autoscroll
font size
0
reset
guitar tuner
Tab Pro tools
  • play this tab
  • loop segment
  • change instrument
  • show fretboard
  • metronome
×
Best way to learn
"Never Gonna Leave This Bed"
Autoscroll
slow
fast
+/-
esc
set tempo
stop
Contributor
Difficulty
intermediate
Never Gonna Leave This Bed:

Update: I've re-vamed this tab entirely! ^_^

Verse 1:

G|----------------|----------------|----------------|----------------|----------------|
D|----------------|----------------|----------------|----------------|----------------|
A|----------------|----------------|----------------|---2----2-------|----------------|
E|------------/12-|---4----4-------|---0------------|----------------|---4------------|


G|----------------|----------------|----------------|-----------------|
D|----------------|----------------|----------------|-----------------|
A|----------------|----------------|---2----2---2---|-----------------|
E|--2-4----4------|--0-------------|-2--------------|--2-2--2-2-2-2---|


Chorus:


G|-----------------|-----------------|-----------------|------------------|
D|-----------------|-----------------|-----------------|------------------ |
A|-----------------|-----------------|-----------------|------------------|
E|-7-7-7-7-7-7-7-7-|-7-7-7-7-7-7-7-7-|-7-7-7-7-7-7-7-7-|-7-7-7-7-9-11-9-7-|

G|-----------------|------------------------|-----------------|--------------------|
D|-----------------|------------------------|-----------------|--------------------|
A|-----------------|------------------------|-----------------|--------------------|
E|-4-4-4-4-4-4-4-4-|-0-0-0--/12-12-11--7-9--|-7-7-7-7-7-7-7-7-|-2-2-2-2-2/14-14-14-|


Verse 2:

G|----------------|----------------|----------------|-----------------|
D|----------------|----------------|----------------|-----------------|
A|----------------|----------------|---2----=2------|-----------------|
E|----4-----4-----|--0-------------|----------------|--2--------------|

G|----------------|----------------|----------------|-----------------|
D|----------------|----------------|----------------|-------------4---|
A|----------------|---6h7----------|---2-----2------|-----------------|
E|--2-4----4------|-------0-=-0----|----------------|--2-2--2-2-------|

G|----------------|----------------|----------------|-----------------|
D|----------------|----------------|----------------|-----------------|
A|----------------|----------------|---2----=2------|-----------------|
E|----4-----4-----|--0-------------|-2--------------|--2--------------|

G|----------------|----------------|----------------|-----------------|
D|----------------|----------------|----------------|-----------------|
A|----------------|----------------|-----------7h9--|--9-9-9-9-9-9/---|
E|--2-4----4------|-/11-12--0--0-0-|-14--7-7-7------|-----------------|

Chorus:


G|-----------------|-----------------|-----------------|------------------|
D|-----------------|-----------------|-----------------|------------------|
A|-----------------|-----------------|-----------------|------------------|
E|-7-7-7-7-7-7-7-7-|-7-7-7-7-7-7-7-7-|-7-7-7-7-7-7-7-7-|-7-7-7-7-9-11-9-7-|

G|-----------------|------------------------|-----------------|--------------------|
D|-----------------|------------------------|-----------------|--------------------|
A|-----------------|------------------------|-----------------|--------------------|
E|-4-4-4-4-4-4-4-4-|-0-0-0--/12-12-11--7-9--|-7-7-7-7-7-7-7-7-|-2-2-2-2-2/14-14-14-|


G|-----------------|------------------|-----------------|------------------|
D|-----------------|------------------|-----------------|------------------|
A|-----------------|------------------|-----------------|------------------|
E|-7-7-7-7-7-7-7-7-|-7-7-7-7-9-11-9-7-|-6-6-6-6-6-6-6-6-|-6-6-6-6-9-11-9-7-|


G|-----------------|------------------------|-----------------|--------------------|
D|-----------------|------------------------|-----------------|--------------------|
A|-----------------|------------------------|-----------------|--------------------|
E|-4-4-4-4-4-4-4-4-|-0-0-0--/12-12-11--7-9--|-7-7-7-7-7-7-7-7-|-2-2-2-2-2/14-14-14-|


Bridge:

G|-----------------|-----------------|-----------------|-----------------|
D|-----------------|-----------------|-----------------|-----------------|
A|-----------------|-----------------|-----------------|-9-9-9-9-9-9-9-9-|
E|-4-4-4-4-4-4-4-4-|-0-0-0-0-0-0-0-0-|-7-7-7-7-7-7-7-7-|-----------------|

G|-----------------|-----------------------------|
D|-----------------|-----------------------------|
A|-----------------|-/11-11-11-11-11-11-11-(stop)|
E|-4-4-4-4-4-4-4-4-|-----------------------------|

Chorus:

G|-----------------|-----------------|-----------------|------------------|
D|-----------------|-----------------|-----------------|------------------|
A|-----------------|-----------------|-----------------|------------------|
E|-7-7-7-7-7-7-7-7-|-7-7-7-7-7-7-7-7-|-6-6-6-6-6-6-6-6-|-6-6-6-6-9-11-9-7-|

G|-----------------|------------------------|-----------------|--------------------|
D|-----------------|------------------------|-----------------|--------------------|
A|-----------------|------------------------|-----------------|--------------------|
E|-4-4-4-4-4-4-4-4-|-0-0-0--/12-12-11--7-9--|-7-7-7-7-7-7-7-7-|-2-2-2-2-2/14-14-14-|

Outro:


G|-----------------|-------------------|-----------------|------------------|
D|-----------------|-------------------|-----------------|------------------|
A|-----9-----------|-------9-----9-----|-----------------|------------------|
E|-7-7---7-7-7-7-7-|-7-7-7---7-7---7-7-|-6-6-6-6-6-6-6-6-|-6-6-6-6-9-11-9-7-|

G|-----------------|-----------------------------|-----------------|-----------------|
D|-----------------|-----------------------------|-----------------|-----------------|
A|-----------------|-----------------------------|-----------------|-----------------|
E|-4-4-4-4-4-4-4-4-|-0-0-0--/12-12-12-11-12-11-9-|-7-7-7-7-7-7-7-7-|-2-2-2-2-2-2-2-2-|


comments
We did not receive enough feedback on this tab! Please rate:
print report bad tab
1 2 3 4 5
I want to post or [tab]
guest
You may want to rate the tab now too:
select rating
Please do not post tabs as comments. Select "correction" instead!