Oops, an error
Loading. Please wait.

Nothing Lasts Forever Tab

version 1
version 1

Whole song

Interactive

22,597 views 9 this week
6 commentsread comments
1 2 3 4 5
accurate
x 4
add to favorites
launch autoscroll
font size
0
reset
how to read this tab
guitar tuner
Tab Pro tools
  • play this tab
  • loop segment
  • change instrument
  • show fretboard
  • metronome
×
Best way to learn
"Nothing Lasts Forever"
Autoscroll
slow
fast
+/-
esc
set tempo
stop
Contributor
Tuning
E A D G B E
----------------------------------------------------------------------------
                            nothing lasts forever - maroon 5
---------------------------------------------------------- -----------------
Tabbed by:fata900       !=repeat        all notes are sorta staccto and fast(short).pick

Email:                                     same patter through out


Tuning:dadgbd(i messed it up b4 its fixed now though!)
 intro-verse
                       play 3 times               play 3 times

d|--------0----------!-0---------0------!----0--!-0---------0---------!------|
B|------------3--------- 3---------3----------------2----------2-------------|
G-----------------2--------2----------2----------------2---------2-----------|
D|--------0----------------------------------0-------------------------------|
A|---------------------------------------------------------------------------|
d|-------------------!-------------------!------!----------------------!-----|

d|---0-----0---------0-----------0---------------4----------4---------------|
B|------------0----------0-----------0---------------5-----------5----------|
G|---------------0-----------0-----------0---------------0-----------0------|
D|--------------------------------------------------------------------------|
A|--------------------------------------------------------------------------|
d|---5-------------------------------------------5--------------------------|

e|---4----------------------------------------------------------------------|
B|--------5-----------------------------------------------------------------|
G|-------------0------------------------------------------------------------|
D|--------------------------------------------------------------------------|
A|--------------------------------------------------------------------------|
E|--------------------------------------------------------------------------|

 chours is all dotted quater notes(meaning they last for 2 beats)

d|---0---0---0----5-------------------------------4-------------------------|
B|---3---2---0----4-------------------------------3-------------------------|
G|---2---2---0----0-------------------------------2-------------------------|
D|---0---0---0----0-------------------------------0-------------------------|
A|-----------x----x---------------------------------------------------------|
d|-----------5----5---------------------------------------------------------|
                             on last chours only ^

bridge(this isnt right i dont think do it the same as chours picking rp.3 times each)
e|----0-------------------0----------------------------0---------------------|
B|---------0--------------------0---------------------------0----------------|
G|--------------0----------------------0------------------------0------------|
D|---------------------------------------------------------------------------|
A|---------------------------------------------------------------------------|
E|----7-------------------5-----------------------------2--------------------|


intro 2 times
verse 3-4 times
chours play 3-5 times
verse agian
bridge i think
final chours 2 times
comments
print report bad tab
6 comments total. Showing first comments.
0 reply
arkhightek wrote on June 4 2007, 07:55 pm

ur version is good but u put

d|--------0----------!-0---------0------!----0--!-0---------0---------!------|
B|------------3---------3---------3----------------2----------2--------------|
G-----------------2--------2----------2----------------2---------2-----------|
D|--------0----------------------------------0-------------------------------|
A|---------------------------------------------------------------------------|
d|-------------------!-------------------!------!----------------------!-----|

d|---0-----0---------0-----------0---------------4----------4---------------|
B|------------0----------0-----------0---------------5-----------5----------|
G|---------------0-----------0-----------0---------------0-----------0------|
D|--------------------------------------------------------------------------|
A|--------------------------------------------------------------------------|
d|---5-------------------------------------------5--------------------------|

e|---4----------------------------------------------------------------------|
B|--------5-----------------------------------------------------------------|
G|-------------0------------------------------------------------------------|
D|--------------------------------------------------------------------------|
A|--------------------------------------------------------------------------|
E|--------------------------------------------------------------------------|

when it should be more like

d|--------0----------!-0---------0------!----0--!-0---------0---------!------|
B|------------3----------3---------3----------------2----------2-------------|
G-----------------2--------2----------2----------------2---------2-----------|
D|--------0----------------------------------0-------------------------------|
A|---------------------------------------------------------------------------|
d|-------------------!-------------------!------!----------------------!-----|

d|---0---------4-----------3-------------3------------0------------4---------|
B|------5-----------5-----------5-------------5------------5----------5------|
G|----------0-----------0-----------0-------------0------------0----------0--|
D|---------------------------------------------------------------------------|
A|---------------------------------------------------------------------------|
d|---5------------------------------------------------5----------------------|

e|---3-------------3--------------------------------------------------------|
B|--------5------------5----------------------------------------------------|
G|-------------0-----------0------------------------------------------------|
D|--------------------------------------------------------------------------|
A|--------------------------------------------------------------------------|
E|--------------------------------------------------------------------------|

0 reply
rorro15 wrote on June 22 2007, 06:15 pm

hey man I think your intro and chorus are allright but I think in the tunning you made a little mistake

Because if you play the intro with this tunning:

DADGAD there is something that it doesn't sounds good
but if you tune it like this

DADGBD your intro sounds kick as*!

its just a comment ok

0 reply
naruto5119 wrote on July 2 2007, 10:56 pm

idk..didnt try it like that but i will

I want to post or [tab]
guest
You may want to rate the tab now too:
select rating
Please do not post tabs as comments. Select "correction" instead!