Oops, an error
Loading. Please wait.

Nothing Lasts Forever Tab

version 3
version 3

Whole song

Interactive

2,912 views 1 this week
1 commentread comment
1 2 3 4 5
please rate
add to favorites
launch autoscroll
font size
0
reset
how to read this tab
guitar tuner
Autoscroll
slow
fast
+/-
esc
set tempo
stop
Help us to improve Ultimate-Guitar.com Take our survey!
×
Contributor
Difficulty
novice
Nothing lasts forever - Maroon 5


Tabbed by Everydaylearn


 Tunning : F# B  D  G B d
 

 Intro-

d |--------0----0----0--------------------------|
B |----------------------------2---2----2-------|
G |----2-----2----2----2-2---2---2---2----2-2---|
D |---0-0-----0----0----0-----------------------|
B |-------------------------3-3---3---3----3----|
F#|---------------------------------------------|

d |-------4--------------------4----4-----------|
B |------------5----5----------------5---5------|
G |----4----4----4----4-----4----4----4----4-4--|
D |---5-5----5----5----5---5-5----5----5----5---|
B |---------------------------------------------|
F#|---------------------------------------------|


 Verse 1

d |--------0----0----0--------------------------|
B |----------------------------2---2----2-------|
G |----2-----2----2----2-2---2---2---2----2-2---|
D |---0-0-----0----0----0-----------------------|
B |-------------------------3-3---3---3----3----|
F#|---------------------------------------------|

d |-------4--------------------4----4-----------|
B |------------5----5----------------5---5------|
G |----4----4----4----4-----4----4----4----4-4--|
D |---5-5----5----5----5---5-5----5----5----5---|
B |---------------------------------------------|
F#|---------------------------------------------|

Repeat 4 times


 Chorus(Guitar 1)

d |--------0----0----0--------------------------|
B |----------------------------2---2----2-------|
G |----2-----2----2----2-2---2---2---2----2-2---|
D |---0-0-----0----0----0-----------------------|
B |-------------------------3-3---3---3----3----|
F#|---------------------------------------------| Repeat 2 times

d |-------------------------|
B |-------0----0----0-------|
G |----0----0----0----0-0---|
D |---0-0----0----0----0----|
B |-------------------------|
F#|-------------------------| Repeat 2 times

d |-------------------------|
B |-------------------------|
G |----0--3-0--3-0--3-0-0---|
D |---0-0----0----0----0----|
B |-------------------------|
F#|-------------------------| Repeat 2 times

d |---4-----4-----------------------------------|
B |---3-----3-----------------------------------|
G |---2-----2-----------------------------------|
D |---0-----0-----------------------------------|
B |---------------------------------------------|
F#|---------------------------------------------| 

 Chorus(Guitar 2)

d |---0--0--0--0-----4--4--4--4-----------------|
B |---3--2--3--2-----4--5--4--5-----------------|
G |---2--2--2--2-----4--4--4--4-----------------|
D |---0--0--0--0-----5--5--5--5-----------------|
B |---------------------------------------------|
F#|---------------------------------------------|

 Verse 2 
- Same as the verse 1


 Chorus


 Bridge

d |-------5----5----5----------8----8----8------|
B |---------3----3----3-3--------8----8----8-8--|
G |-------------------------7-----7----7----7---|
D |----5-----5----5----5---0-0------------------|
B |---0-0---------------------------------------|
F#|---------------------------------------------|

d |-------7----7----0---------4----4----4-------|
B |---------7----7---7-7--------3--2-3--2-3-3---|
G |----7-----7----7---7----2-----2----2----2----|
D |-----------------------0-0-------------------|
B |---------------------------------------------|
F#|---7-7---------------------------------------|

d |-------5----5----5----------8----8----8------|
B |---------3----3----3-3--------8----8----8-8--|
G |-------------------------7-----7----7----7---|
D |----5-----5----5----5---0-0------------------|
B |---0-0---------------------------------------|
F#|---------------------------------------------|

d |-------7----0----0---------4----4----4-------|
B |---------7----7---7-7--------3--2-3--2-3-3---|
G |----7-----7----7---7----2-----2----2----2----|
D |-----------------------0-0-------------------|
B |---------------------------------------------|
F#|---7-7---------------------------------------|

d |-------2----2----2-----------5----5----5-----|
B |---------2----2----2-2---------3----3----3-3-|
G |----2-----2----2----2-----3-----3----3----3--|
D |---2-2-------------------0-0-----------------|
B |---------------------------------------------|
F#|---------------------------------------------|


Chorus X 2

End.

Thanks
comments
We did not receive enough feedback on this tab! Please rate:
print report bad tab
1 2 3 4 5
1 comment total.
0 reply
ShrimpthePimp 1,091 wrote on January 11 2008, 05:51 pm

couldnt you just put a capo on 2?

I want to post or [tab]
guest
You may want to rate the tab now too:
select rating
Please do not post tabs as comments. Select "correction" instead!