Oops, an error
Loading. Please wait.

Nothing Lasts Forever Tab

version 4
version 4

Whole song

Interactive

33,135 views 6 this week
1 commentread comment
1 2 3 4 5
x 14
add to favorites
launch autoscroll
font size
0
reset
how to read this tab
guitar tuner
Autoscroll
slow
fast
+/-
esc
set tempo
stop
Help us to improve Ultimate-Guitar.com Take our survey!
×
Author
Difficulty
intermediate
Tabbed by Cullie

I couldn't get this song out of my head, and unfortunately, the other tabs
just didn't sound like the real deal to me. Hence, I created my first tab.

The structure of the song is at the bottom. I apologize for my lack of
knowledge when it comes to structure terms.


Tuning: Standard (EADGBe)



 Intro and Verse (Guitar 1)

(Fig.A)   D
e|--------------------------------------------------------------------\
B|---------------------3------------3------------3--------------------|
G|------------2------------2------------2------------2-------2--------|
D|--------0-------0------------0------------0------------0------------|
A|--------------------------------------------------------------------|
E|--------------------------------------------------------------------|

          A
e|--------------------------------------------------------------------|
B|---------------------2------------2------------2--------------------|
G|------------2------------2------------2------------2-------2--------|
D|--------0-------0------------0------------0------------0------------|
A|--------------------------------------------------------------------|
E|--------------------------------------------------------------------|

        Gmaj7                      G6
e|---------------------2------------0------------0--------------------|
B|------------0------------0------------0------------0-------0--------|
G|----------------0------------0------------0------------0------------|
D|--------------------------------------------------------------------|
A|--------------------------------------------------------------------|
E|--------3-----------------------------------------------------------|


        Gmaj7                      G6
e|---------------------2------------2p0----------0--------------------|
B|------------0------------0------------0------------0-------0--------|
G|----------------0------------0------------0------------0------------|
D|--------------------------------------------------------------------|
A|--------------------------------------------------------------------|
E|--------3-----------------------------------------------------------/


     Chorus (Guitar 1)

(Fig.B)        D
     e|--------------------------------------------------------------------\
     B|---------------------3------------3------------3--------------------|
     G|------------2------------2------------2------------2-------2--------|
     D|--------0-------0------------0------------0------------0------------|
     A|--------------------------------------------------------------------|
     E|--------------------------------------------------------------------|

               A
     e|--------------------------------------------------------------------|
     B|---------------------2------------2------------2--------------------|
     G|------------2------------2------------2------------2-------2--------|
     D|--------0-------0------------0------------0------------0------------|
     A|--------------------------------------------------------------------|
     E|--------------------------------------------------------------------|

               D
     e|--------------------------------------------------------------------|
     B|---------------------3------------3------------3--------------------|
     G|------------2------------2------------2------------2-------2--------|
     D|--------0-------0------------0------------0------------0------------|
     A|--------------------------------------------------------------------|
     E|--------------------------------------------------------------------|

               A
     e|--------------------------------------------------------------------|
     B|---------------------2------------2------------2--------------------|
     G|------------2------------2------------2------------2-------2--------|
     D|--------0-------0------------0------------0------------0------------|
     A|--------------------------------------------------------------------|
     E|--------------------------------------------------------------------|

               G
     e|--------------------------------------------------------------------|
     B|--------------------------------------------------------------------|
     G|---------------------4------------4------------4-----------4--------|
     D|------------5------------5------------5------------5----------------|
     A|--------5-------5------------5------------5------------5------------|
     E|--------------------------------------------------------------------|

               G
     e|--------------------------------------------------------------------|
     B|--------------------------------------------------------------------|
     G|---------------------4------------4------------4-----------4--------|
     D|------------5------------5------------5------------5----------------|
     A|--------5-------5------------5------------5------------5------------|
     E|--------------------------------------------------------------------|

               Gm
     e|--------------------------------------------------------------------|
     B|--------------------------------------------------------------------|
     G|---------------------3------------3------------3-----------3--------|
     D|------------5------------5------------5------------5----------------|
     A|--------5-------5------------5------------5------------5------------|
     E|--------------------------------------------------------------------|

               Gm
     e|--------------------------------------------------------------------|
     B|--------------------------------------------------------------------|
     G|---------------------3------------3------------3-----------3--------|
     D|------------5------------5------------5------------5----------------|
     A|--------5-------5------------5------------5------------5------------|
     E|--------------------------------------------------------------------/



     Chorus (Guitar 2)

(Fig.B)   D      A      D      A     G6      G    Gmaj7   Gm      D

     e|-------------------------------0------3------3------3------2--------\
     B|---3------2------3------2------0------3------3------3------3--------|
     G|---2------2------2------2------0------0------4------3------2--------|
     D|---0------2------0------2------0------0------4------5------0--------|
     A|---0------0------0------0------2------2------5------5---------------|
     E|-------------------------------3------3------3------3---------------/


Bridge (Fig.C)

e|---------------------3------------3------------3--------------------\
B|------------5------------5------------5------------5-------5--------|
G|--------4-------4------------4------------4------------4------------|
D|--------------------------------------------------------------------|
A|--------------------------------------------------------------------|
E|--------------------------------------------------------------------|

e|---------------------6------------6------------6--------------------|
B|------------8------------8------------8------------8-------8--------|
G|--------7-------7------------7------------7------------7------------|
D|--------------------------------------------------------------------|
A|--------------------------------------------------------------------|
E|--------------------------------------------------------------------|

e|---------------------5------------5------------5--------------------|
B|------------7------------7------------7------------7-------7--------|
G|--------7-------7------------7------------7------------7------------|
D|--------------------------------------------------------------------|
A|--------------------------------------------------------------------|
E|--------------------------------------------------------------------|

e|---------------------2------------2------------2--------------------|
B|------------3------------3--------2-h-3--------2-h-3---2-h-3--------|
G|--------4-------4------------4------------4-------------------------|
D|--------------------------------------------------------------------|
A|--------------------------------------------------------------------|
E|--------------------------------------------------------------------|

Bridge Ending(Fig.D)

e|--------------------------------------------------------------------|
B|---------------------0-h-2--------0-h-2--------0-h-2----------------|
G|---------------------2------------2------------2--------------------|
D|------------2----------------2-------------------------2------------|
A|--------0-------0-------------------------0----------------0--------|
E|--------------------------------------------------------------------|


e|---------------------3------------3------------3--------------------|
B|---------------------3------------3------------3--------------------|
G|------------4------------4------------4-------------4---------------|
D|--------5-------5------------5------------5-------------5-----------|
A|------------------------------------------------------------5-------|
E|--------------------------------------------------------------------/


Structure:

Intro    (A)

Verse I  (A Twice)

Chorus   (B)

Verse II (A Twice)

Chorus   (B)

Bridge   (C Twice)

Bridge Ending (D)

Chorus   (B)

Chorus   (B)

Suggest correction
comments
print report bad tab
1 comment total.
+4 reply
selina82 10 Apr 18, 2008 11:30 AM

HEY man thanx so much for this tab- I see you have put a lot of thought and effort in to it- I thank you :)

guest
You may want to rate the tab now too:
select rating
Wanna post a correction for this tab? Suggest correction