Oops, an error
Loading. Please wait.

Payphone Tab

version 5
version 5

Whole song

Interactive

Video

  • High quality, easy to follow lesson with on screen tab.
391 views 285 this week
no commentswrite comment
1 2 3 4 5
3 more votes to show rating
add to favorites
launch autoscroll
font size
0
reset
how to read this tab
guitar tuner
×
Best way to learn
"Payphone"
Autoscroll
slow
fast
+/-
esc
set tempo
stop
Author
Difficulty
Capo
  follow
novice
4th fret
About this tab version
Fully structured tab with song timings. Easy to follow. Was this info helpful? Yes No
===========================================
Video Lesson to accompany this tab:
https://www.youtube.com/watch?v=c_dz-KsN4I4
===========================================

--------------
CAPO ON FRET 4
==================================
CHORDS USED:
   Cadd9     G      Em7      D
e|---3---|---3---|---3---|---2---|
B|---3---|---3---|---3---|---3---|
G|---0---|---0---|---0---|---2---|
D|---2---|---0---|---2---|---0---|
A|---3---|---2---|---2---|-------|
E|-------|---3---|-------|-------|
==================================

[INTRO]
0.00 - 0.18
"I'm at a payphone trying to call home..."
e|-3--------------------|-3--------------------|-3--------------------|-2--------------------|
B|-3--------------------|-3--------------------|-3--------------------|-3--------------------|
G|-0--------------------|-0--------------------|-0--------------------|-2--------------------| x2
D|-2--------------------|-0--------------------|-2--------------------|-0--------------------|
A|-3--------------------|-2--------------------|-2--------------------|----------------------|
E|----------------------|-3--------------------|----------------------|----------------------|

[VERSE]
0.19 - 0.35
"Yeah I, I know it's hard to remember..."
e|-3--------------------|-3--------------------|-3--------------------|-2--------------------|
B|-3--------------------|-3--------------------|-3--------------------|-3--------------------|
G|-0--------------------|-0--------------------|-0--------------------|-2--------------------| x2
D|-2--------------------|-0--------------------|-2--------------------|-0--------------------|
A|-3--------------------|-2--------------------|-2--------------------|----------------------|
E|----------------------|-3--------------------|----------------------|----------------------|

[PRE-CHORUS]
0.36 - 0.53
"I've wasted my nights, you turned out the lights..."
e|-3------------------3-|-3------------------3-|-3------------------3-|-2------------------3-|
B|-3------------------3-|-3------------------3-|-3------------------3-|-3------------------3-|
G|-0------------------0-|-0------------------0-|-0------------------0-|-2------------------2-| x2
D|-2------------------2-|-0------------------0-|-2------------------2-|-0------------------0-|
A|-3------------------3-|-2------------------2-|-2------------------2-|----------------------|
E|----------------------|-3------------------3-|----------------------|----------------------|

[CHORUS a]
0.54 - 1.09 
"I'm at a payphone trying to call home..."
e|-3---3---3--3--3--3---|-3---3---3--3--3--3-3-|-3---3---3--3--3--3---|-2---2---2--2--2--2-3-|
B|-3---3---3--3--3--3---|-3---3---3--3--3--3-3-|-3---3---3--3--3--3---|-3---3---3--3--3--3-3-|
G|-0---0---0--0--0--0---|-0---0---0--0--0--0-0-|-0---0---0--0--0--0---|-2---2---2--2--2--2-2-| x2
D|-2---2---2--2--2--2---|-0---0---0--0--0--0-0-|-2---2---2--2--2--2---|-0---0---0--0--0--0-0-|
A|-3---3---3--3--3--3---|-2---2---2--2--2--2-2-|-2---2---2--2--2--2---|----------------------|
E|----------------------|-3---3---3--3--3--3-3-|----------------------|----------------------|
   D   D   U  D  U  D     D   D   U  D  U  D U   D   D   U  D  U  D     D   D   U  D  U  D U 

[CHORUS b]
1.10 - 1.28
"If happy ever after did exist, I would still be holding you like this..."
e|-3--3-x-3--3-x-3--3-3-|-3--3-x-3--3-x-3--3-3-|-3--3-x-3--3-x-3--3-3-|-2--2-x-2--2-x-2--2-3-|
B|-3--3-x-3--3-x-3--3-3-|-3--3-x-3--3-x-3--3-3-|-3--3-x-3--3-x-3--3-3-|-3--3-x-3--3-x-3--3-3-|
G|-0--0-x-0--0-x-0--0-0-|-0--0-x-0--0-x-0--0-0-|-0--0-x-0--0-x-0--0-0-|-2--2-x-2--2-x-2--2-2-| x2
D|-2--2-x-2--2-x-2--2-2-|-0--0-x-0--0-x-0--0-0-|-2--2-x-2--2-x-2--2-2-|-0--0-x-0--0-x-0--0-0-|
A|-3--3-x-3--3-x-3--3-3-|-2--2-x-2--2-x-2--2-2-|-2--2-x-2--2-x-2--2-2-|------x------x--------|
E|------x------x--------|-3--3-x-3--3-x-3--3-3-|------x------x--------|------x------x--------|
   D  U D D  U D D  D U   D  U D D  U D D  D U   D  U D D  U D D  D U   D  U D D  U D D  D U

[VERSE]
1.29 - 1.46
"You turned your back on tomorrow, cause you forgot yesterday.."
e|-3--------------------|-3--------------------|-3--------------------|-2--------------------|
B|-3--------------------|-3--------------------|-3--------------------|-3--------------------|
G|-0--------------------|-0--------------------|-0--------------------|-2--------------------| x2
D|-2--------------------|-0--------------------|-2--------------------|-0--------------------|
A|-3--------------------|-2--------------------|-2--------------------|----------------------|
E|----------------------|-3--------------------|----------------------|----------------------|

[PRE-CHORUS]
1.47 - 2.02
"I've wasted my nights, you turned out the lights..."
e|-3------------------3-|-3------------------3-|-3------------------3-|-2------------------3-|
B|-3------------------3-|-3------------------3-|-3------------------3-|-3------------------3-|
G|-0------------------0-|-0------------------0-|-0------------------0-|-2------------------2-| x2
D|-2------------------2-|-0------------------0-|-2------------------2-|-0------------------0-|
A|-3------------------3-|-2------------------2-|-2------------------2-|----------------------|
E|----------------------|-3------------------3-|----------------------|----------------------|

[CHORUS a]
2.03 - 2.19
"I'm at a payphone trying to call home..."
e|-3---3---3--3--3--3---|-3---3---3--3--3--3-3-|-3---3---3--3--3--3---|-2---2---2--2--2--2-3-|
B|-3---3---3--3--3--3---|-3---3---3--3--3--3-3-|-3---3---3--3--3--3---|-3---3---3--3--3--3-3-|
G|-0---0---0--0--0--0---|-0---0---0--0--0--0-0-|-0---0---0--0--0--0---|-2---2---2--2--2--2-2-| x2
D|-2---2---2--2--2--2---|-0---0---0--0--0--0-0-|-2---2---2--2--2--2---|-0---0---0--0--0--0-0-|
A|-3---3---3--3--3--3---|-2---2---2--2--2--2-2-|-2---2---2--2--2--2---|----------------------|
E|----------------------|-3---3---3--3--3--3-3-|----------------------|----------------------|
   D   D   U  D  U  D     D   D   U  D  U  D U   D   D   U  D  U  D     D   D   U  D  U  D U 

[CHORUS b]
2.20 - 2.38
"If happy ever after did exist, I would still be holding you like this..."
e|-3--3-x-3--3-x-3--3-3-|-3--3-x-3--3-x-3--3-3-|-3--3-x-3--3-x-3--3-3-|-2--2-x-2--2-x-2--2-3-|
B|-3--3-x-3--3-x-3--3-3-|-3--3-x-3--3-x-3--3-3-|-3--3-x-3--3-x-3--3-3-|-3--3-x-3--3-x-3--3-3-|
G|-0--0-x-0--0-x-0--0-0-|-0--0-x-0--0-x-0--0-0-|-0--0-x-0--0-x-0--0-0-|-2--2-x-2--2-x-2--2-2-| x2
D|-2--2-x-2--2-x-2--2-2-|-0--0-x-0--0-x-0--0-0-|-2--2-x-2--2-x-2--2-2-|-0--0-x-0--0-x-0--0-0-|
A|-3--3-x-3--3-x-3--3-3-|-2--2-x-2--2-x-2--2-2-|-2--2-x-2--2-x-2--2-2-|------x------x--------|
E|------x------x--------|-3--3-x-3--3-x-3--3-3-|------x------x--------|------x------x--------|
   D  U D D  U D D  D U   D  U D D  U D D  D U   D  U D D  U D D  D U   D  U D D  U D D  D U

[RAP BREAKDOWN]
2.39 - 3.11
e|-3--------------------|-3--------------------|-3--------------------|-2--------------------|
B|-3--------------------|-3--------------------|-3--------------------|-3--------------------|
G|-0--------------------|-0--------------------|-0--------------------|-2--------------------| x4
D|-2--------------------|-0--------------------|-2--------------------|-0--------------------|
A|-3--------------------|-2--------------------|-2--------------------|----------------------|
E|----------------------|-3--------------------|----------------------|----------------------|

[CHORUS a]
3.12 - 3.28
"I'm at a payphone trying to call home..."
e|-3---3---3--3--3--3---|-3---3---3--3--3--3-3-|-3---3---3--3--3--3---|-2---2---2--2--2--2-3-|
B|-3---3---3--3--3--3---|-3---3---3--3--3--3-3-|-3---3---3--3--3--3---|-3---3---3--3--3--3-3-|
G|-0---0---0--0--0--0---|-0---0---0--0--0--0-0-|-0---0---0--0--0--0---|-2---2---2--2--2--2-2-| x2
D|-2---2---2--2--2--2---|-0---0---0--0--0--0-0-|-2---2---2--2--2--2---|-0---0---0--0--0--0-0-|
A|-3---3---3--3--3--3---|-2---2---2--2--2--2-2-|-2---2---2--2--2--2---|----------------------|
E|----------------------|-3---3---3--3--3--3-3-|----------------------|----------------------|
   D   D   U  D  U  D     D   D   U  D  U  D U   D   D   U  D  U  D     D   D   U  D  U  D U 

[CHORUS b]
3.29 - 3.49
"If happy ever after did exist, I would still be holding you like this..."
e|-3--3-x-3--3-x-3--3-3-|-3--3-x-3--3-x-3--3-3-|-3--3-x-3--3-x-3--3-3-|-2--2-x-2--2-x-2--2-3-|
B|-3--3-x-3--3-x-3--3-3-|-3--3-x-3--3-x-3--3-3-|-3--3-x-3--3-x-3--3-3-|-3--3-x-3--3-x-3--3-3-|
G|-0--0-x-0--0-x-0--0-0-|-0--0-x-0--0-x-0--0-0-|-0--0-x-0--0-x-0--0-0-|-2--2-x-2--2-x-2--2-2-| x2
D|-2--2-x-2--2-x-2--2-2-|-0--0-x-0--0-x-0--0-0-|-2--2-x-2--2-x-2--2-2-|-0--0-x-0--0-x-0--0-0-|
A|-3--3-x-3--3-x-3--3-3-|-2--2-x-2--2-x-2--2-2-|-2--2-x-2--2-x-2--2-2-|------x------x--------|
E|------x------x--------|-3--3-x-3--3-x-3--3-3-|------x------x--------|------x------x--------|
   D  U D D  U D D  D U   D  U D D  U D D  D U   D  U D D  U D D  D U   D  U D D  U D D  D U

[END ON]
3.50
e|-3--------------------|
B|-3--------------------|
G|-0--------------------| x1
D|-2--------------------|
A|-3--------------------|
E|----------------------|

************************************

| x   Dead Note

************************************
Suggest correction
Give kudos to tab author, rate the tab!
1 2 3 4 5
comments
print report bad tab
guest
You may want to rate the tab now too:
select rating
Wanna post a correction for this tab? Suggest correction