Oops, an error
Loading. Please wait.
We have an official She Will Be Loved tab made by UG professional guitarists. Check out the tab »
×
22,637 views 111 this week
1 commentread comment
1 2 3 4 5
x 4
add to favorites
×
Save as Personal and add changes to this tab that will be seen only by you. Learn more ›
×
You can save this tab as Personal to edit and correct it or add notes. All changes will be seen only by you. Learn more »
launch autoscroll
font size
0
reset
how to read this tab
guitar tuner
backing track
0:00
0:00
edit
Autoscroll
slow
fast
+/-
esc
set tempo
stop
Author
Tabbed by: alex4d1
Tab based on acoustic version available on Spotify
____________________________________________________________________________
**Note: There are plenty of other ways that match the song relatively well, I
just tabbed the one I think Maroon 5 plays for a majority of this particular
recording. And I was too lazy to put all the lyrics so I just demonstrated
how certain excerpts went with the guitar part, sorry. Happy playing!**

Please feel free to comment below with corrections if you find errors. This
is my first tab after all, so there definitely should be at least a few.
____________________________________________________________________________

CAPO ON SECOND FRET

+ = downbeat
x = mute/slap
()= alternate fingering
~ = sustain

[Chords]
   Am7       G           C       Cadd9       F/C     Aadd4      F
e|--0--| e|--x(3)--| e|--0--| e|--3(x)--| e|--0--| e|--0--| e|--1----|
B|--1--| B|--0(3)--| B|--1--| B|--3-----| B|--1--| B|--3--| B|--1----|
G|--0--| G|--0-----| G|--0--| G|--0-----| G|--0--| G|--2--| G|--2----|
D|--2--| D|--0-----| D|--2--| D|--2-----| D|--3--| D|--2--| D|--3----|
A|--0--| A|--2-----| A|--3--| A|--3-----| A|--x--| A|--0--| A|--3(x)-|
E|--0--| E|--3-----| E|--0--| E|--0-----| E|--x--| E|--0--| E|--1(x)-|


[Intro]

    Am7                         G7             (G7)
     +       +       +       +       +       +       +       +           
e|---------------------------x---------------x-----------------------|
B|-----------1---1---1---1---x-----------0---x---0---------------0---|
G|-----------0---0---0---0---x---------------x-----------------------|
D|---------------------------x-----------3---x---3-------3-----------| x2
A|---0-------0---------------x-------2-------x---------------2-------|
E|---------------------------x---3-----------x---3-------------------|


[VERSE] (same as intro)

        Am7                        G7              (G7)
         +       +       +       +       +       +       +       +           
    e|---------------------------x---------------x-----------------------|
    B|-----------1---1---1---1---x-----------0---x---0---------------0---|
    G|-----------0---0---0---0---x---------------x-----------------------|
    D|---------------------------x-----------3---x---3-------3-----------| x8
    A|---0-------0---------------x-------2-------x---------------2-------|
    E|---------------------------x---3-----------x---3-------------------|

          |     Beauty queen of     on-      ly     eight-  een,    she
(ex. of   |     Had some trouble    with    her-    self...
how lyrics|
go with   |          I drove for   miles    and,    miles   and,   wound
the song) |  up    at     your    door...
          |


[Chorus]

     Cadd9                           G
     +       +       +       +       +       +       +       +       +
e|---x-------------------------------------------------------------------|
B|---3~----------3-------------------------------------------------------|
G|---0~------0-----------0-----------------------2-------0---------------|
D|---2~----------------------0---------------0---------------------------|
A|---3~--------------------------3---------------------------------------|
E|-----------------------------------3-----------------------3---4-------|

             I don't mind  spending  ev- er- y  day..

     Am7                                     G
     +       +       +       +       +       +       +       +       +
e|-------------------------------------------x---x-------x---x-----------|
B|---------------1---------------------------0---0-------x---0-----------|
G|-----------0-----------0-------------------0---0-------0---0-----------|
D|---------------------------2---------------0---0-------0---0-----------|
A|---0---------------------------0-----------2---2-------2---2-----------|
E|-----------------------------------3-------3---3-------3---3-----------|

        Out  on your  corner in the  pouring    rain,    oh

     Cadd9                           G
     +       +       +       +       +       +       +       +       +
e|-----------------------------------------------------------------------|
B|---------------3-------------------------------------------------------|
G|-----------0-----------0-----------------------2-------0---------------|
D|---------------------------0---------------0---------------------------|
A|---3---------------------------3---------------------------------------|
E|-----------------------------------3-----------------------3---4-------|

        Look for the girl  with the  broken    smile     

     Am7                             G                               C
     +       +       +       +       +       +       +       +       +
e|-----------------------------------3---3---3---3---3---3---3---3---0---|
B|---------------3-------------------3---3---3---3---3---3---3---3---1---|
G|-----------0-----------0-----------0---0---0---0---0---0---0---0---0---|
D|---------------------------2-------0---0---0---0---0---0---0---0---2---|
A|---0---------------------------0---2---2---2---2---2---2---2---2---3---|
E|-----------------------------------3---3---3---3---3---3---3---3---0---|

            Ask her if she wants to stay a-     while, and  she will-

(cont'd, chords)

 Cadd9       G             Amadd4     G           Cadd9      G
 -be      loved, and she will, be loved, and she will, be loved, and she

  Amadd4    G    F/C(hold out)
will, be loved..


[Bridge]

Amadd4              G
I know where you hide, alone in your car
Amadd4              G
Know all of the things that make you who you are..

..(until last line)
     G                        F                        
...Catch her every time she, falls



LYRICS:
Beauty queen of only eighteen, she-
Had some trouble with herself
He was always there to help her, she-
always belonged to someone else.

I drove for miles and miles
And wound up at your door
I've had you so many times but somehow I want more

I don't mind spending every day
Out on your corner in the pouring rain
Look for the girl with the broken smile
Ask her if she wants to stay awhile
And she will be loved
She will be loved

Tap on my window knock on my door, I-
want to make you feel beautiful
I know I tend to get so insecure
Doesn't matter anymore

It's not always rainbows and butterflies
It's compromise that moves us along 
My heart is full and my door's always open
Come anytime you want (yeah)

I don't mind spending every day
Out on your corner in the pouring rain
Look for the girl with the broken smile
Ask her if she wants to stay awhile
She will be loved
She will be loved
She will be loved
She will be loved

I know where you hide
Alone in your car
Know all of the things that make you who you are
I know that goodbye means nothing at all
Comes back and begs me, catch her every time she falls (yeah)

Tap on my window
Knock on my door
I wanna make you feel beautiful

I don't mind spending every day
Out on your corner in the pouring rain
Look for the girl with the broken smile
Ask her if she wants to stay awhile
She will be loved
She will be loved
She will be loved
Yeah! (She will be loved)

            
            
Suggest correction
Creating personal tab
Creating personal tab
You can edit any tab online and save it as your Personal.

You can edit, replace or remove any tab part or add personal notes – all changes will be seen only by you.

Personal tabs can be accessed anytime from any device, even offline.
Learn more »
comments
print report bad tab
1 comment total.
0 reply
Fishbowlza 10 Jul 21, 2014 06:47 PM

The part with "Drove for miles and miles" doesn't match up with the rest of the song. Can you tab that?

guest
You may want to rate the tab now too:
select rating
Wanna post a correction for this tab? Suggest correction