Oops, an error
Loading. Please wait.

Sunday Morning Demo tab

46 views 3 this week
no commentswrite comment
1 2 3 4 5
3 more votes to show rating
add to favorites
×
Save as Personal and add changes to this tab that will be seen only by you. Learn more ›
×
You can save this tab as Personal to edit and correct it or add notes. All changes will be seen only by you. Learn more »
launch autoscroll
font size
0
reset
how to read this tab
guitar tuner
edit
Autoscroll
slow
fast
+/-
esc
set tempo
stop
Author
Difficulty
About this tab version
Its from the demo track. There is tabs about the break and the verse portion. Was this info helpful? Yes No
[Intro]

     #Just drum & piano#


[Verse 1]

     #Just drum & piano#
   Sunday morning rain is falling

   Steal some covers share some skin


#Come in on word 'clouds' with riff below during whole verse#
e|-------------------------|-------------------------|
B|-------------------------|-------------------------|
G|---------5------------4--|---------4------------4--|
D|-3-3-3-3---3--3-3-3-3---3|-2-2-2-2---2--2-2-2-2---2|
A|-------------------------|-------------------------|
E|-------------------------|-------------------------|
   * * * *   *  * * * *   *  * * * *   *  * * * *   *

Dm7           G7                CMaj7   
   Clouds are shrouding us in moments unforgettable
       Dm7               G7            CMaj7
   You twist to fit the mold that I am in
        Dm7                 G7          CMaj7 
   But things just get so crazy living life gets hard to do
               Dm7            G7              CMaj7
   And I would gladly hit the road get up and go if I knew
        Dm7               G7             CMaj7   
   That someday it would lead me back to you
        Dm7               G7             CMaj7
   That someday it would lead me back to you


[Chorus]

            Dm7  G7  CMaj7
That may be all  I   need
                   Dm7  G7  CMaj7
In darkness she is all  I   see
                   Dm7    G7   CMaj7
Come and rest your bones with  me
                       Dm7 
Driving slow on Sunday morning
       G7            CMaj7
And I never want to leave


[Verse 2]

*just voice and piano*
   Fingers trace your every outline
Dm7         G7             CMaj7
   Paint a picture with my hands
Dm7          G7                CMaj7
   Back and forth we sway like branches in a storm
              Dm7              G7            CMaj7
   Change the weather still together when it ends


[Chorus]

            Dm7  G7  CMaj7
That may be all  I   need
                   Dm7  G7  CMaj7
In darkness she is all  I   see
                   Dm7    G7   CMaj7
Come and rest your bones with  me
                       Dm7 
Driving slow on Sunday morning
       G7            CMaj7
And I never want to leave


[Break Down]

e|---------------------------------------------------------------------------|
B|---------------------------------------------------------------------------|
G|--------8-9----------------------------------------------------------------|
D|--10--10-------9-8-7---9h10------9h10----9h10---------------10-10----10----|
A|-----------------------------10-------9-------8---8--10--12------12--------|
E|---------------------------------------------------------------------------|

e|----------------------------------------------------------------|
B|----------------------------------------------------------5--6--|
G|--------8-9-----------------------------------------------5--6--|
D|------10-------9-8-7---9h10------9h10----9h10-------------5--6--|
A|-----------------------------10-------9-------8---8--10---3--4--|
E|----------------------------------------------------------------|

 
[8 bar piano solo]

      Dm7  G7  CMaj7

[8 bar sax solo]

      Dm7  G7  CMaj7


[Chorus]

            Dm7  G7  CMaj7
That may be all  I   need
                   Dm7  G7  CMaj7
In darkness she is all  I   see
                   Dm7    G7   CMaj7
Come and rest your bones with  me

            Dm7  G7  CMaj7
            all  I   need
                   Dm7  G7  CMaj7
                   all  I   see
                   Dm7    G7   CMaj7
                   bones with  me
            Dm7  G7  CMaj7
            all  I   need
                   Dm7  G7  CMaj7
                   all  I   see


[End Break Down]

e|---------------------------------------------------------------------------|
B|---------------------------------------------------------------------------|
G|--------8-9----------------------------------------------------------------|
D|--10--10-------9-8-7---9h10------9h10----9h10---------------10-10----10----|
A|-----------------------------10-------9-------8---8--10--12------12--------|
E|---------------------------------------------------------------------------|

e|-------------------------------------------------------------|
B|------------------------------------------------------------5|
G|--------8-9-------------------------------------------------4|
D|------10-------9-8-7---9h10------9h10----9h10---------------5|
A|-----------------------------10-------9-------8---8--9--10--3|
E|-------------------------------------------------------------|


[Alt: Break down]

e|----------------|--------------------|-----------------|
B|----------------|--------------------|-----------------|
G|----------------|--------------------|-----------------|
D|-----1-2--------|--------------------|-----------------|
A|-3--3------2-1-0|-2-3----2-3----2-3--|------------3-3--|
E|----------------|-----3------2------1|-1-3------5-----5|

                                               
e|----------------|--------------------|----------|-----------|
B|----------------|--------------------|----------|-----------|
G|----------------|--------------------|----------|-----------|
D|-----1-2--------|--------------------|----------|-----------|
A|-3--3------2-1-0|-2-3----2-3----2-3--|---------3|--4----5---|
E|----------------|-----3------2------1|--3--5----|-----------|
Suggest correction
Creating personal tab
Creating personal tab
You can edit any tab online and save it as your Personal.

You can edit, replace or remove any tab part or add personal notes – all changes will be seen only by you.

Personal tabs can be accessed anytime from any device, even offline.
Learn more »
Give kudos to tab author, rate the tab!
1 2 3 4 5
comments
print report bad tab
guest
You may want to rate the tab now too:
select rating
Wanna post a correction for this tab? Suggest correction