Oops, an error
Loading. Please wait.
We have an official This Love tab made by UG professional guitarists. Check out the tab »
×
12,569 views 6 this week
no commentswrite comment
1 2 3 4 5
x 4
add to favorites
×
Save as Personal and add changes to this tab that will be seen only by you. Learn more ›
×
You can save this tab as Personal to edit and correct it or add notes. All changes will be seen only by you. Learn more »
launch autoscroll
font size
0
reset
how to read this tab
guitar tuner
backing track
0:00
0:00
edit
Autoscroll
slow
fast
+/-
esc
set tempo
stop
Author
Maroon 5
This Love
Album: Songs About Jane
Tabbed By Tim Colborne

This is my first Tab! Maroon 5 are my favorite band so i hope this helps!!
Please leave any corrections or comments.
Thanks

Intro (Bass)

e-----------------------------------|
B-----------------------------------|
G-----------------------------------|
D-----------------------------------|
A--------------10-9-8--8-6-5--------|
E---7--7-10-8-----------------4-6-7-|

Verse

Guitar 1

e-----------------------------------|
B-----------------------------------|
G-----------------------------------|
D-----------------------------------|
A--------------10-9-8--8-6-5--------|
E---7--7-10-8-----------------4-6-7-|

I was so high i did not recognise...
Guitar 2

e---7-7-x-7-7---8-8-x-8-8---8--8--x-8--8---7-7-x-7-7-|
B---6-6-x-6-6---8-8-x-8-8---9--9--x-9--9---6-6-x-6-6-|
G---7-7-x-7-7---8-8-x-8-8---10-10-x-10-10--7-7-x-7-7-|
D----------------------------------------------------|
A----------------------------------------------------|
E----------------------------------------------------|

Chorus

Guitar 1

e---8--8----8--8--8------6-6---6-6-|
B---8--8----9--9--8h9----6-6---8-8-|
G---8--8----8--8--8------7-7---8-8-|
D---10-10---10-10-8h10---8-8---8-8-|
A---10-10---8--8--8------8-8---6-6-|
E---8--8-----------------6-6-------|

This love has taken its toll on me...

e---8--8----8--8--8------6-6---6-6--7-|
B---8--8----9--9--8h9----6-6---8-8--9-|
G---8--8----8--8--8------7-7---8-8--9-|
D---10-10---10-10-8h10---8-8---8-8--9-|
A---10-10---8--8--8------8-8---6-6--7-|
E---8--8-----------------6-6----------|

Last Bar of Chorus

e---8--8----8--8-------------|
B---8--8----9--9-------------|
G---8--8----8--8-------------|
D---10-10---10-10--6-6--5--5-|
A---10-10---8--8---6-6--5--5-|
E---8--8-----------4-4--3--3-|

And I have no choice cause i wont say goodbye anymore

Verse 2

Guitar 1

e-----------------------------------|
B-----------------------------------|
G-----------------------------------|
D-----------------------------------|
A--------------10-9-8--8-6-5--------|
E---7--7-10-8-----------------4-6-7-|

I tried my best to feed her appiteite...
Guitar 2

e---7-7-x-7-7---8-8-x-8-8---8--8--x-8--8---7-7-x-7-7-|
B---6-6-x-6-6---8-8-x-8-8---9--9--x-9--9---6-6-x-6-6-|
G---7-7-x-7-7---8-8-x-8-8---10-10-x-10-10--7-7-x-7-7-|
D----------------------------------------------------|
A----------------------------------------------------|
E----------------------------------------------------|

Chorus 2

Guitar 1

e---8--8----8--8--8------6-6---6-6-|
B---8--8----9--9--8h9----6-6---8-8-|
G---8--8----8--8--8------7-7---8-8-|
D---10-10---10-10-8h10---8-8---8-8-|
A---10-10---8--8--8------8-8---6-6-|
E---8--8-----------------6-6-------|

This love has taken its toll on me...

e---8--8----8--8--8------6-6---6-6--7-|
B---8--8----9--9--8h9----6-6---8-8--9-|
G---8--8----8--8--8------7-7---8-8--9-|
D---10-10---10-10-8h10---8-8---8-8--9-|
A---10-10---8--8--8------8-8---6-6--7-|
E---8--8-----------------6-6----------|

Last Bar of Chorus

e---8--8----8--8-------------|
B---8--8----9--9-------------|
G---8--8----8--8-------------|
D---10-10---10-10--6-6--5--5-|
A---10-10---8--8---6-6--5--5-|
E---8--8-----------4-4--3--3-|

And I have no choice cause i wont say goodbye anymore

(First part of verse)

e-----------------------------------|
B-----------------------------------|
G-----------------------------------|
D-----------------------------------|
A--------------10-9-8--8-6-5--------|
E---7--7-10-8-----------------4-6-7-|

Bridge
(Might be some parts missing but what i have here is correct)

e---8----6----7----8---|
B---9----8----7----8---|
G---8----8----8----8---|
D---10---8----9----10--|
A---8----6----9----10--|
E-------------7----8---|

e---8----6----7--------|
B---9----8----7--------|
G---8----8----8--------|
D---10---8----9--------|
A---8----6----9--------|
E-------------7--------|

Outro(Chorus)


Guitar 1

e---8--8----8--8--8------6-6---6-6-|
B---8--8----9--9--8h9----6-6---8-8-|
G---8--8----8--8--8------7-7---8-8-|
D---10-10---10-10-8h10---8-8---8-8-|
A---10-10---8--8--8------8-8---6-6-|
E---8--8-----------------6-6-------|

This love has taken its toll on me...

e---8--8----8--8--8------6-6---6-6--7-|
B---8--8----9--9--8h9----6-6---8-8--9-|
G---8--8----8--8--8------7-7---8-8--9-|
D---10-10---10-10-8h10---8-8---8-8--9-|
A---10-10---8--8--8------8-8---6-6--7-|
E---8--8-----------------6-6----------|

Last Bar of Chorus

e---8--8----8--8-------------|
B---8--8----9--9-------------|
G---8--8----8--8-------------|
D---10-10---10-10--6-6--5--5-|
A---10-10---8--8---6-6--5--5-|
E---8--8-----------4-4--3--3-|

And I have no choice cause i wont say goodbye anymore

I think this is correct and i hope it helped!
Like i said please leave comments or corrections.

Many Thanks
Tim

            
            
Suggest correction
Creating personal tab
Creating personal tab
You can edit any tab online and save it as your Personal.

You can edit, replace or remove any tab part or add personal notes – all changes will be seen only by you.

Personal tabs can be accessed anytime from any device, even offline.
Learn more »
comments
print report bad tab
guest
You may want to rate the tab now too:
select rating
Wanna post a correction for this tab? Suggest correction