Oops, an error
Loading. Please wait.

Through With You Tab

version 1
version 1

Whole song

Interactive

11,514 views 6 this week
3 commentsread comments
1 2 3 4 5
x 10
add to favorites
launch autoscroll
font size
0
reset
how to read this tab
guitar tuner
×
Best way to learn
"Through With You"
Autoscroll
slow
fast
+/-
esc
set tempo
stop
Author
-------------------------------------------------------------------------------
                             Through With You - Maroon5
-------------------------------------------------------------------------------
Tabbed by:Swisha        
Email:xxxswishaxxx@aol.com

Tuning: Standard Tuned Down ½ step (Eb,Ab,Db,Gb,Bb,eb)

  W/ wah-wah
e|---------------------------------------------------------------------------|
B|---------------------------------------------------------------------------|
G|---------------------------------------------------------------------------|
D|---------------------------------------------------------------------------|
A|----------------------------------5--------5--------5h7---5---------5------|
E|-7---------------------5h7---6h7-----7---------7--------------6h7-------7--|

  The main riff is also played like this:

e|---------------------------------------------------------------------------|
B|---------------------------------------------------------------------------|
G|-------------7-----------7------7h9---7----------7-------------------------|
D|--7h9---8h9-----9---7h9-----9--------------8h9------9----------7-----------|
A|-----------------------------------------------------------9-------9-------|
E|---------------------------------------------------------------------------|

Verse:

  Can you see me...        As you lay in bed thinking about everything 
e|---------------------------------------------------------------------------|
B|---------------------------------------------------------------------------|
G|---------------------------------------------------------------------------|
D|---------------------------------------------------------------------------|
A|-------------------------------7-------5-----------------------------------|
E|--------5h7------------------------------------------7--------5------------|

  That you did not do...    has nothing to do with meaning it
e|---------------------------------------------------------------------------|
B|---------------------------------------------------------------------------|
G|---------------------------------------------------------------------------|
D|---------------------------------------------------------------------------|
A|-----------------------------7---------5-----------------------------------|
E|-----------------7\------------------------------7------5------------------|

Then it goes into the main riff again...then into the next verse

Chorus

  Bm                              D
  You ain't never coming back to me, that's not how things were supposed to be
e|---------------------------------------------------------------------------|
B|---------------------------------------------------------------------------|
G|---------------------------------------------------------------------------|
D|---------------------------------------------------------------------------|
A|------------------------------------5--------5------------------5--------5-|
E|--7--------7----------7--------7-------------------------------------------|

  You take my hand just to give it back, no other lover has ever done that
e|---------------------------------------------------------------------------|
B|---------------------------------------------------------------------------|
G|---------------------------------------------------------------------------|
D|---------------------------------------------------------------------------|
A|--7---------7------------7--------7-----9--------9----------9--------9-----|
E|---------------------------------------------------------------------------|





In the end of the second chorus it goes like this...

   I called to let you know I'm through with you
e|---------------------------------------------------------------------------|
B|---------------------------------------------------------------------------|
G|---------------------------------------------------------------------------|
D|-----5--------4------------------------------------------------------------|
A|----------7-------5---7----4----5------------------------------------------|
E|---------------------------------------5----7------------------------------|

That's just about it...the interlude though goes like this

e|---------------------------------------------------------------------------|
B|---------------------------------------------------------------------------|
G|---------------------------------------------------------------------------|
D|------------------------------7--------------------------------------------|
A|--------------5-6-5-6---8-9-8-----7---5-7-5--------5-----5-----------------|
E|----6-7-6-7---------------------------------7-5-7-----4--------------------|

e|---------------------------------------------------------------------------|
B|---------------------------------------------------------------------------|
G|---------------------------------------------------------------------------|
D|------------------------------7--------------------------------------------|
A|--------------5-6-5-6---8-9-8-----7---5-7-5--------5-------5-------5-------|
E|----6-7-6-7---------------------------------7-5-7------4-------3-------2---|

e|---------------------------------------------------------------------------|
B|---------------------------------------------------------------------------|
G|---------------------------------------------------------------------------|
D|----4--5-----4-------------------------------------------------------------|
A|----------7------5--7--4--5--2---------------------------------------------|
E|---------------------------------------------------------------------------|




| /  slide up
| \  slide down
| h  hammer-on
| p  pull-off
| ~  vibrato
| +  harmonic
| x  Mute note
Suggest correction
comments
print report bad tab
3 comments total.
0 reply
DeviousDevotion 10 Oct 21, 2005 10:29 AM

Great song, and great tab. I tweaked a couple of things in the intro, but very good nonetheless :)

0 reply
daflamingmonkey 10 Dec 24, 2005 06:42 PM

should be like this.


W/ wah-wah
e|---------------------------------------------------------------------------|
B|---------------------------------------------------------------------------|
G|---------------------------------------------------------------------------|
D|---------------------------------------------------------------------------|
A|------------------------------4----------4------6-----4-------------4------|
E|-6---------------------5h6---------6------------------------5h6---------6--|

The main riff is also played like this:

e|------------------------------------------------------------------------------------|
B|------------------------------------------------------------------------------------|
G|------------------------------------------------------------------------------------|
D|------------------------------------------------------------------------------------|
A|---1---------------0--1--4--1----4s6--4---0--1--4--1--------------------------------|
E|------------------------------------------------------------------------------------|

Verse:

Can you see me... As you lay in bed thinking about everything
e|---------------------------------------------------------------------------|
B|---------------------------------------------------------------------------|
G|---------------------------------------------------------------------------|
D|---------------------------------------------------------------------------|
A|-------------------------------6-------4-----------------------------------|
E|--------5h6------------------------------------------6--------5------------|

That you did not do... has nothing to do with meaning it
e|---------------------------------------------------------------------------|
B|---------------------------------------------------------------------------|
G|---------------------------------------------------------------------------|
D|---------------------------------------------------------------------------|
A|-----------------------------6---------4-----------------------------------|
E|-----------------6\------------------------------6------5------------------|

Then it goes into the main riff again...then into the next verse

Chorus

Bm D
You ain't never coming back to me, that's not how things were supposed to be
e|---------------------------------------------------------------------------|
B|---------------------------------------------------------------------------|
G|---------------------------------------------------------------------------|
D|---------------------------------------------------------------------------|
A|------------------------------------5--------5------------------5--------5-|
E|--7--------7----------7--------7-------------------------------------------|

You take my hand just to give it back, no other lover has ever done that
e|---------------------------------------------------------------------------|
B|---------------------------------------------------------------------------|
G|---------------------------------------------------------------------------|
D|---------------------------------------------------------------------------|
A|--7---------7------------7--------7-----9--------9----------9--------9-----|
E|---------------------------------------------------------------------------|


In the end of the second chorus it goes like this...

I called to let you know I'm through with you
e|---------------------------------------------------------------------------|
B|---------------------------------------------------------------------------|
G|---------------------------------------------------------------------------|
D|-----5--------4------------------------------------------------------------|
A|----------7-------5---7----4----5------------------------------------------|
E|---------------------------------------5----7------------------------------|

That's just about it...the interlude though goes like this

e|---------------------------------------------------------------------------|
B|---------------------------------------------------------------------------|
G|---------------------------------------------------------------------------|
D|------------------------------7--------------------------------------------|
A|--------------5-6-5-6---8-9-8-----7---5-7-5--------5-----5-----------------|
E|----6-7-6-7---------------------------------7-5-7-----4--------------------|

e|---------------------------------------------------------------------------|
B|---------------------------------------------------------------------------|
G|---------------------------------------------------------------------------|
D|------------------------------7--------------------------------------------|
A|--------------5-6-5-6---8-9-8-----7---5-7-5--------5-------5-------5-------|
E|----6-7-6-7---------------------------------7-5-7------4-------3-------2---|

e|-----------------------------------------------------------------------

0 reply
chelz 173 Sep 18, 2008 07:03 AM

it's Am then D after the Bm and D you provided for the chorus.
I'd prefer more chords but...well you put this under tabs so i guess it's to be expected. Ta

guest
You may want to rate the tab now too:
select rating
Wanna post a correction for this tab? Suggest correction