Oops, an error
Loading. Please wait.

Revolution Of Heroes Tab

405 views 1 this week
no commentswrite comment
1 2 3 4 5
please rate
add to favorites
launch autoscroll
font size
0
reset
how to read this tab
guitar tuner
Autoscroll
slow
fast
+/-
esc
set tempo
stop
Help us to improve Ultimate-Guitar.com Take our survey!
×
Author
Tuning
D A D G B E
-------------------------------------------------------------------------------
                             Revolution of Heroes - Marrok
-------------------------------------------------------------------------------
Tabbed by:Sonniii1000

Tuning:Drop D
Intro: 0:00- 0:48
e|--------------------------------------------------------------------------|
B|-7h8p7--7-8-10-11-10-8-10-8-7---------------------------------------------|
G|------7-------------------------------------------------------------------|
D|-------0------------------------------------------------------------------|
A|-5------5-----------------------------------------------------------------|
D|--------------------------------------------------------------------------|

e|--------------------------------------------------------------------------|
B|-7h8p7--7-8-10-11-13-11-10-8-7--------------------------------------------|
G|------7-------------------------------------------------------------------|
D|-------0------------------------------------------------------------------|
A|-5------5-----------------------------------------------------------------|
D|--------------------------------------------------------------------------|

 0:32- 0:48
e|--------------------------------------------------------------------------|
B|--------------------------------------------------------------------------|
G|--------------------------------------------------------------------------|
D|-0--------0-0-0--0--------------------------------------------------------|
A|-0--------0-0-0--0--------------------------------------------------------|
D|-0--------0-0-0--0--------------------------------------------------------|
            * * *
0:48- 1:04
e|--------------------------------------------------------------------------|
B|--------------------------------------------------------------------------|
G|--------------------------------------------------------------------------|
D|-4-5-4----4-5-7-8-7-5-7-5-4-----------------------------------------------|
A|-------5-5----------------------------------------------------------------|
D|--------------------------------------------------------------------------|
                  ~
e|---------------------------------------------------------------------------|
B|---------------------------------------------------------------------------|
G|---------------------------------------------------------------------------|
D|-4-5-4----4-5-7-8-10-8-7-5-4-----------------------------------------------|
A|-------5-5-----------------------------------------------------------------|
D|---------------------------------------------------------------------------|
                  ~ ~  ~
1:05- 1:15 / 1:58- 2:09
e|--------------------------------------------------------------------------|
B|--------------------------------------------------------------------------|
G|--------------------------------------------------------------------------|
D|----5-4-5-4---7-5---8-7-5-------------------------------------------------|
A|--------------------------------------------------------------------------|
D|-0-0-------0-0---0-0-0----------------------------------------------------|
   * *       * *   * * *

e|--------------------------------------------------------------------------|
B|--------------------------------------------------------------------------|
G|--------------------------------------------------------------------------|
D|----5-4-5-4---7-5----8-7-5------------------------------------------------|
A|--------------------------------------------------------------------------|
D|-0-0-------0-0----0-0-----------------------------------------------------|
   * *       * *    * *

 1:15- 1:36
e|--------------------------------------------------------------------------|
B|--------------------------------------------------------------------------|
G|--------------------------------------------------------------------------|
D|--------------------------------------------------------------------------|
A|--------------------------------------------------------------------------|
D|-000-0--000000-12--00-0--000000-12--00-0--0000000-12-00--000-000----------|
   *** *  ****** ~   ** *  ****** ~   ** *  ******* ~  **  *** ***

e|--------------------------------------------------------------------------|
B|--------------------------------------------------------------------------|
G|--------------------------------------------------------------------------|
D|--------------------------------------------------------------------------|
A|--------------------------------------------------------------------------|
D|-000-0--000000-12--00-0--000000-12--00-0--0000000-12-00-0--000-0----------|
   *** *  ****** ~   ** *  ****** ~   ** *  ******* ~  ** *  *** *

  1:36- 1:58 / 2:33- 2:54
e|---------------------------------------------------------------------------|
B|---------------------------------------------------------------------------|
G|-7--5--------7--5---------7--3---------------------------------------------|
D|-7--5--5--8--7--5--5--8---7--5--5--8--10-----------------------------------|
A|-5--3--5--8--5--3--5--8---5--5--5--8--10-----------------------------------|
D|-------5--8--------5--8---------5--8--10-----------------------------------|

  2:09- 2:30
e|--------------------------------------------------------------------------|
B|--------------------------------------------------------------------------|
G|--------------------------------------------------------------------------|
D|--------------------------------------------------------------------------|
A|--------------------------------------------------------------------------|
D|-00-00-0--00-00--0-0-0--00-00-0-0-00-00-----------------------------------|
   ** ** *  ** **  * * *  ** ** * * ** **

e|--------------------------------------------------------------------------|
B|--------------------------------------------------------------------------|
G|--------------------------------------------------------------------------|
D|--------------------------------------------------------------------------|
A|--------------------------------------------------------------------------|
D|-000-0--000000-12--00-0--000000-12--00-0--0000000-12-00--000-000----------|
   *** *  ****** ~   ** *  ****** ~   ** *  ******* ~  **  *** ***

  3:15- 3:53
e|--------------------------------------------------------------------------|
B|--------------------------------------------------------------------------|
G|--------------------------------------------------------------------------|
D|--------------------------------------------------------------------------|
A|-5--5-5---5-6-8-6-5-6-5--5-5--5-6-8-6-5-6-5-------------------------------|
D|--00-0-00--------------00-0-00--------------------------------------------|
    ** * **              ** * **

   3:53- 3:58
e|---------------------------------------------------------------------------|
B|---------------------------------------------------------------------------|
G|---------------------------------------------------------------------------|
D|---------------------------------------------------------------------------|
A|-5-5-7-8-7-8-10-8-10-12-10-12-13-10-12-8-10-5-7-4-5------------------------|
D|---------------------------------------------------------------------------|



************************************

| /   slide up
| \   slide down
| h   hammer-on
| p   pull-off
| ~   vibrato
| +   harmonic
| x   Mute note
| b   Bend
| pb  Pre-bend
| br  Bend release
| pbr Pre-bend release
| brb Bend release bend

************************************
http://www.marrok.com/
Suggest correction
What's this?
You can suggest a correction to this tab. Community and Mods will review your correction and vote to approve or reject it.
comments
We did not receive enough feedback on this tab! Please rate:
print report bad tab
1 2 3 4 5
guest
You may want to rate the tab now too:
select rating
Please do not post tabs as comments. Select "correction" instead!