Oops, an error
Loading. Please wait.

Someday Someway Bass Tab

22 views 3 this week
no commentswrite comment
1 2 3 4 5
3 more votes to show rating
add to favorites
launch autoscroll
font size
0
reset
guitar tuner
Autoscroll
slow
fast
+/-
esc
set tempo
stop
Help us to improve Ultimate-Guitar.com Take our survey!
×
Author
Difficulty
intermediate
Someday, Someway by Marshall Crenshaw
Tab by Sean Kelly 

[Verse]
G|-------------------------|
D|-------------------------|
A|-------------------------|
E|-5-5-5-5-0-0-5-5-5-5-0-0-|

[Chorus]
G|------------------------------------------------------------|
D|---4-2-4---2-4-4-----4-2-4---2-4-4---4-2-2---11---9---7---9-|
A|-5-------4-------4-5-------4-------5-------9----7---5---7---|
E|------------------------------------------------------------|

[Transition to bridge]
G|---------------------|
D|-------------7-5-4-2-|
A|---------------------|
E|-5-5-5-5-0-0---------|

[Bridge]
G|---------------------4-2---4---6---------------|
D|---4---------------4-----5---7-----4-----------|
A|-5---------2---4-5---------------5-------------|
E|-----7-5-3---5-----------------------7-5-3-2-0-|
Suggest correction
Give kudos to tab author, rate the tab!
1 2 3 4 5
comments
print report bad tab
guest
You may want to rate the tab now too:
select rating
Wanna post a correction for this tab? Suggest correction