Oops, an error
Loading. Please wait.

Alone tab

version 1
version 1

Whole song

  • This tab was figured out by ear from EDM (Electron... Show more
21,355 views 420 this week
4 commentsread comments
1 2 3 4 5
x 6
add to favorites
×
Save as Personal and add changes to this tab that will be seen only by you. Learn more ›
×
You can save this tab as Personal to edit and correct it or add notes. All changes will be seen only by you. Learn more »
launch autoscroll
font size
0
reset
how to read this tab
guitar tuner
edit
Autoscroll
slow
fast
+/-
esc
set tempo
stop
Author
Difficulty
Arrangement by Fleming Onasis
https://www.youtube.com/watch?v=pA4HLrJNfTk

[Intro]
e|----------------------------------------------------------------------------|
B|----------------------------------------------------------------------------|
G|----------------------------------------------------------------------------|
D|---0---0---0---------4---4---4---------------------------4---4---4---2------|
A|---------------------------------------5---5---5---4---5---5---5---4--------|
E|-3---3---3---3/5---5---5---5---5/7---7---7---7---7--------------------------|

[Chorus]
e|--2--------5-----0-2-0~--|----3----2---3-----2------0-2-----|----0--2-------|
B|--3--3-------------------|-------------------------------3~-|-------3--3----|
G|--------------0----------|--0---0----------------0----------|--0------------|
D|-------------------------|-------------------------------0~-|---------------|
A|---------------------0~--|---------2------2-----------------|---------------|
E|--3-----3----------------|----------------------------------|-------3----3--|

                                                          o        o
e|-5---0-2-0~--|----3----2---3-----2-----0-2------|----0-----2-----------2----|
B|-------------|------------------------------3~--|-------3--------3--3-------|
G|---0---------|--0---0---------------0-----------|--0------------------------|
D|-------------|------------------------------0---|---------------------------|
A|---------0~--|---------2------2-----------------|-------------x-----------x-|
E|-------------|----------------------------------|-------3-----x--3--------x-|

     o     o           o       o              o       o           o       o
e|-3-0-2-0----0-2-0---------3-----2-----2--3-------2-----3/5-3-0--0-2---------|
B|-3-3-3-3----3-3-3-3-----3-3-------3--(0)--------(0)----------0--------------|
G|------------------------0---------------------0-----0-------(0)-------------|
D|--------------------------------------------4-----------------------------0-|
A|---0---x-0------x----2----x--2--------x----------x-----------x-------x------|
E|-------x--------x---------x-----------x----------x-----------x--3----x------|

           o       o           o        o              o          o     
e|-------3-0-2-0------0-2-0---------3------2-----2--3---------2---3---3/5-3---|
B|--3----3-3-3-3------3-3-3-3-----3-3--------3--(0)-------3--(0)--------------|
G|--------------------------------0-------------------------------------------|
D|-----------------------------------------------------0----------------------|
A|-----x---0---x---0-----------2----x---2--------x------------x---------------|
E|-----x-------x--------------------x------------x------------x---------------|

        {Verse}
e|--0---|---------------5---2-0-------------------0------2----3-2----0--------|
B|--0---|--------3----------------------2-2/3------------3----3-3---------3---|
G|-(0)--|--------0--------0----------2----------------------0------0------0---|
D|------|--0---0---------------------0---------0-----0------------------------|
A|--x---|-------------------------0-------0-------0------2------2-------0-----|
E|--x---|----3-------3--------------------------------------------------------|

e|-------0---------|-----------5------2--0-----------------0-----2-3-2------2-|
B|-----3-----3---3-|-----3------------------------2-2/3----------3---3----3---|
G|---2-----2-----0-|----------------------------2-------2-----0---------0-----|
D|-0-----0-----0---|---0----------0-------------------------------------------|
A|-----------------|-----------------(0)-----0------0------------2---2--------|
E|-----------------|-3------3-------------------------------------------------|

e|----3----2---0------|--------------5-----2-0-------------------0--2---3--2--|
B|----3----3-------3--|-------------------(0)------2----2/3-----(0)-3---3--3--|
G|-------0---0---0----|-------(0)------------------2---------2----------------|
D|-0------------------|----0--(0)-0-----0-------------------------------------|
A|--------------------|--------x-----------x----0-----x----------x--2-2-x--2--|
E|--------------------|--3-----x-----3-----x----------x----------x------x-----|

e|----0-----------(0)-0----2----|------------5-----2--0------------------0----|
B|----0----3-------3-------3-3--|-----------------(0)------2----2/3-----(0)---|
G|---------0----2-(2)---2--2-0--|-----(0)------------------2---------2--------|
D|-0----------0-------0---------|---0-(0)-0-----0-----------------------------|
A|-------x---------x-------x----|------x-----------x-----0----x----------x----|
E|-------x---------x-------x----|-3----x-----3-----x----------x----------x----|

e|-2----3--2------3-2------3-----2-----0--------------------------0--------0--|
B|-3----3--3------3--------------------------3-3-------3----------------------|
G|-------------0--------------------0----------0-------0-----2-2----(0)-0-----|
D|----------------------0----------------------0----0-----0--0------(0)-------|
A|-2-2--x--2-2----x-----------x--0--------x-------x----------x----0--x-----0--|
E|------x---------x-----------x-----------x----3--x----------x-------x--------|

e|-------------------5----0--------0--------------5-----2-0-------------------|
B|-3-3--------3-----(3)---------------3--3--------------0-------2-----2/3-----|
G|-0-0-----0-----0------0-------0-----0--------0---------------------------2--|
D|------------------------0-------------------------0-------------------------|
A|-x----x-----2------x-------x-----0--x-----x-----------x----0-----x--0-------|
E|-x-3--x------------x-------x--------x--3--x-----3-----x----------x----------|
                                                   [Breakdown]
                                                      o      o            o
e|--0-----2-----3--2----3--2-----3-----2--0--------|--2-2----2-2-----2-3--2-2-|
B|-(3)---------(0)-----(0)-------3--------------3--|--3-3----3-3--3--3--------|
G|-----0-----0---------------------------------(0)-|--------------0-----------|
D|-----------------------------0-------0-----------|--------------------------|
A|--x-----2-----x-----2-x-----------x--------x-----|-------x---------x----0---|
E|--x-----------x-------x-----------x--------x-----|--3----x---------x--------|

      o          o        o           o                          o       o
e|----2-2---2-3--2-2------2-2----2----2-3-----3/5-3--2-0-2-0--|--2-------2--2-|
B|--------3-3----3-3------3---3--3-3--3-3----------------3----|--3-3----------|
G|------------------------------------0-----------------------|---------------|
D|------------------------------------------------0-----------|---------------|
A|--x-0-----x----2-----x---------x---------x-------------x----|-------x-------|
E|--x-------x----------x---------x---------x-------------x----|--3----x--3----|

                    o            o        o          o        o            o
e|----2-3--2--------2--2----2-3--2-2------2-2-2-2-3--2-3-3/5--3--2-0-2-0-|-2-2|
B|-3--3----3--3-----3----3-------3-3------3-3-3------------------3---3---|-3-3|
G|-----------------------------------------------------------------------|----|
D|---------------------------------------------------0--------0----------|----|
A|----x----0-----x--0-------x----2-----x--2-----x--------x-----------x---|----|
E|----x----------x----------x----------x--------x--------x-----------x---|-3--|

      o              o         o               o                        o
e|----2-2------2--3--2--2------2--2----2-3---|-2--2-----2--2--2--2--3---2--3--|
B|----3--------3-----3---------3-------3-----|-3--3-----3-----3---------------|
G|----------0-----------------------0--------|--------------------------------|
D|--------------------------------------------|-------------------------0-----|
A|-x-----------x-----0------x----------x-----|-2-----x-----------x------------|
E|-x-----------x------------x----------x-----|-------x-----------x------------|

        o                o        o              o        o              o
e|-3/5--3-2-0--2--0---|--2--2-----2--2-----2--3--2--2-----2--2-----2--3--2--2-|
B|-------------3------|--3--3-----3--3--3--3--------------------3--3-----3--3-|
G|--------------------|-----------------0-------------------------------------|
D|------0-------------|-------------------------------------------------------|
A|-x-----------x------|--------x-----------x-----0-----x--0--------x-----2----|
E|-x-----------x------|--3-----x-----------x-----------x-----------x----------|

       o                  o
e|-----2-2---2--3--3/5----3-2-0--2--2-2--2------------------------------------|
B|-----3---3-3--------------3----3--3-3----3----------------------------------|
G|----------------------------------------------------------------------------|
D|------------------------0---------------------------------------------------|
A|--x--------x-----x-------------x--------------------------------------------|
E|--x--------x-----x-------------x--------------------------------------------|

  {Chorus}  
e|--2--------5-----0-2-0~--|----3----2---3-----2------0-2-----|----0--2-------|
B|--3--3-------------------|-------------------------------3~-|-------3--3----|
G|--------------0----------|--0---0----------------0----------|--0------------|
D|-------------------------|-------------------------------0~-|---------------|
A|---------------------0~--|---------2------2-----------------|---------------|
E|--3-----3----------------|----------------------------------|-------3----3--|

                                                          o        o
e|-5---0-2-0~--|----3----2---3-----2-----0-2------|----0-----2-----------2----|
B|-------------|------------------------------3~--|-------3--------3--3-------|
G|---0---------|--0---0---------------0-----------|--0------------------------|
D|-------------|------------------------------0---|---------------------------|
A|---------0~--|---------2------2-----------------|-------------x-----------x-|
E|-------------|----------------------------------|-------3-----x--3--------x-|

     o     o           o       o              o       o               o    
e|-3-0-2-0----0-2-0---------3-----2-----2--3-------2-----3/5-3-0---------2----|
B|-3-3-3-3----3-3-3-3-----3-3-------3--(0)--------(0)----------0------3-------|
G|------------------------0---------------------0-----0-------(0)--0----------|
D|--------------------------------------------4-------------------------------|
A|---0---x-0------x----2----x--2--------x----------x-----------x-----------x--|
E|-------x--------x---------x-----------x----------x-----------x------3----x--|

   o            o        o        o       o           o           o 
e|------2-----3-0-2-0----0-2-0---------3-----2-----2--3--2---2-3--3/5-3-0-----|
B|-3--3-------3-3-3-3----3-3-3-3-----3-3-------3--(0)------3------------0-----|
G|-----------------------------------0---------------------------------(0)-0--|
D|----------------------------------------------------------------------------|
A|---------x----0---x-0------x----2----x--2--------x---------x-----------x----|
E|-3-------x--------x--------x---------x-----------x---------x-----------x----|

 [Verse] 
e|----------5----2-0---------------0----2---3-2---0------------0----2---------|
B|-----3---------3--------2-2/3---------3---3-3--------3-----3------3-----3---|
G|-----0-------0--------2---2----2---0----0-----0----------2-----2------------|
D|---0-----------------------------------------------0---0-----0-------0------|
A|--------------------0-----------------2-----2-------------------------------|
E|-3-----3--------------------------------------------------------------------|

e|----------5----2-0---------------0----2---3-2---0------------0----2---------|
B|-----3---------3--------2-2/3---------3---3-3--------3-----3------3-----3---|
G|-----0-------0--------2---2----2---0----0-----0----------2-----2------------|
D|---0-----------------------------------------------0---0-----0--------------|
A|--------------------0-----------------2-----2------------------------x------|
E|-3-----3-------------------------------------------------------------x------|

   o
e|-----------------------0------------------------------5----0----------0-----|
B|-3--(3)----3---------------------------3-3-------3------------(0)--0----(3)-|
G|----(0)----------2---------(0)-0-----0-0-------0---0-----0----(0)-------(0)-|
D|--------0-----0-----0------(0)----------------------------------------0-----|
A|-----x-----------x-----0----x-----0----x-2--x----2----x----0---x---------x--|
E|-3---x-----3-----x----------x----------x----x---------x--------x---------x--|

e|----------5--2-0---------0----------2-3-2-------3-2-----3-----2--2-(2)------|
B|-3-----------3------------------------3-3-------3-------3--------3------3---|
G|-0-(0)-0-------------------------0------------0-----------------------------|
D|---(0)------------------------------------------------0-------0-------------|
A|----x--------x-----0--x-------x-----2-x----2----x----------x--------x-------|
E|-3--x-----3--x--------x-------x-------x---------x----------x--------x-------|
 
[Chorus]
        o        o            o        o           o       o      o
e|---0-----2-----------2------3-0-2-0-----0-2-0----2---3---2----3-2---2-3-3/5-|
B|------3--------3--3---------3-3-3-3-----3-3-3-3--3---3---3--------3-3-------|
G|-0-------------------------------------------------0---0--------------------|
D|----------------------------------------------------------------------------|
A|------------x------------x----0---x--0------x----2---x------x-------x-------|
E|------3-----x--3---------x--------x---------x--------x------x-------x-------|

             o        o            o        o           o       o      o
e|--3-0-|-------2-----------2------3-0-2-0-----0-2-0----2---3---2----3-2---2--|
B|----0-|----3--------3--3---------3-3-3-3-----3-3-3-3--3---3---3--------3-3--|
G|---(0)|-0-----------------------------------------------0---0---------------|
D|------|---------------------------------------------------------------------|
A|----x-|-----------x-----------x----0---x--0------x----2---x------x-------x--|
E|----x-|----3------x-3---------x--------x---------x--------x------x-------x--|


                   o     o            o        o           o       o      o
e|-3-3/5-3-0--|----2-2---------2------3-0-2-0-----0-2-0----2---3---2----3-2---|
B|---------0--|------3---3--3---------3-3-3-3-----3-3-3-3--3---3---3--------3-|
G|--------(0)-|-0--------------------------------------------0---0------------|
D|------------|---------------------------------------------------------------|
A|---------x--|--------x-----------x----0---x--0------x----2---x------x-------|
E|---------x--|----3---x-3---------x--------x---------x--------x------x-------|

                  o     o            o        o           o       o      o
e|-2-3-3/5-3-0-|--0-2---------2------3-0-2-0-----0-2-0----2---3---2----3-2----|
B|-3---------0-|--------3--3---------3-3-3-3-----3-3-3-3--3---3---3--------3--|
G|----------(0)|--------------------------------------------0----0------------|
D|-------------|--------------------------------------------------------------|
A|-x---------x-|--3---x-----------x----0---x--0------x----2---x------x--------|
E|-x---------x-|------x-3---------x--------x---------x--------x------x--------|

e|-2-3-3/5-3-0----------------------------------------------------------------|
B|-3---------0---3------------------------------------------------------------|
G|----------(0)--0------------------------------------------------------------|
D|----------------------------------------------------------------------------|
A|-x---------x----------------------------------------------------------------|
E|-x---------x------3---------------------------------------------------------|


************************************

| x   Dead note
| (n) Ghost note
| h   Hammer-on
| p   Pull-off
| /   Slide up
| \   Slide down
| ~   Vibrato
| o   Wrist thump

************************************
Suggest correction
Creating personal tab
Creating personal tab
You can edit any tab online and save it as your Personal.

You can edit, replace or remove any tab part or add personal notes – all changes will be seen only by you.

Personal tabs can be accessed anytime from any device, even offline.
Learn more »
comments
print report bad tab
4 comments total. Showing first comments.
0 reply
c_huynh 11 Dec 28, 2016 07:48 AM

wow thanks so much for making the tabs!! i absolutely love this song! ^_^

+1 reply
jeageulen 10 Jan 09, 2017 06:54 AM

awesome tab!! absolutely wrecked my rewind button from playing this song again and again :)

guest
You may want to rate the tab now too:
select rating
Wanna post a correction for this tab? Suggest correction