Oops, an error
Loading. Please wait.

Alone tab

version 2
version 2

Whole song

  • This tab was figured out by ear from EDM (Electron... Show more
2,590 views 42 this week
2 commentsread comments
1 2 3 4 5
x 3
add to favorites
×
Save as Personal and add changes to this tab that will be seen only by you. Learn more ›
×
You can save this tab as Personal to edit and correct it or add notes. All changes will be seen only by you. Learn more »
launch autoscroll
font size
0
reset
how to read this tab
guitar tuner
edit
Autoscroll
slow
fast
+/-
esc
set tempo
stop
Author
Difficulty
About this tab version
This tab was figured out by ear from EDM (Electronic Dance Music). Expect to play some parts fast. Was this info helpful? Yes No
[Intro]
Gtr.1
e|------------------------------------------------------------------------------|
B|------------------------------------------------------------------------------|
G|------------------------------------------------------------------------------|
D|------------------------------------------------------------------------------|
A|--------5-----5-----5-------------9-----9-----9-----------5-----5-----5-------|
E|--3--3-----3-----3-----3--5----5-----5-----5-----5--9--7-----7-----7-----7--5-|

e|--------------------------|
B|--------------------------| x6
G|--------------------------|
D|--------------------------|
A|-----5-----5-----5-----5--|
E|--3-----3-----3-----3-----|
Note: Make your finger "hop" on the A string (when necessary) to make it sound better and negate the sustain

[Gtr.2][Start after that's^^ done twice]
E|---------------------------------------------------------------------------| 
B|--7-7---10--5h7p5--8-7-8-7--5h7--------------------------------------------| x4
G|------7------------------------7-------------------------------------------|
D|---------------------------------------------------------------------------|
A|---------------------------------------------------------------------------|
E|---------------------------------------------------------------------------|

e|---------------------------------------------------------------------------|
B|---------------------------------------------------------------------------| x3
G|--7--7--7-----10--10--10------7--7--7--------------------------------------|
D|-----------7--------------10-----------7---7--7--7--7----------------------|
A|---------------------------------------------------------------------------|
E|---------------------------------------------------------------------------|
"tata du ta tata..." 

[Chorus]
e|------------------------------------------------------------------------------|
B|------------------------------------------------------------------------------|
G|------------------------------------------------------------------------------|
D|------------------------------------------------------------------------------|
A|--------5-----5-----5-------------9-----9-----9-----------5-----5-----5-------|
E|--3--3-----3-----3-----3--5----5-----5-----5-----5--9--7-----7-----7-----7--5-|

e|--------------------------|
B|--------------------------| x6
G|--------------------------|
D|--------------------------|
A|-----5-----5-----5-----5--|
E|--3-----3-----3-----3-----|

(Electronic Drop part)
e|---------------------------------------------------------------------------|
B|---------------------------------------------------------------------------|
G|--11-11-11-11-11-7-11-12--11-11-11-11-11-7-11-12--11-11-11-11-11-7-11-12---|
D|---------------------------------------------------------------------------|
A|---------------------------------------------------------------------------|
E|---------------------------------------------------------------------------|

e|-------------------------|
B|-------------------------| x4
G|--11-12-14-12-11-9-11-7--|
D|-------------------------|
A|-------------------------|
E|-------------------------|

{Chorus}
[Gtr.1]
e|------------------------------------------------------------------------------|
B|------------------------------------------------------------------------------|
G|------------------------------------------------------------------------------|
D|------------------------------------------------------------------------------|
A|--------5-----5-----5-------------9-----9-----9-----------5-----5-----5-------|
E|--3--3-----3-----3-----3--5----5-----5-----5-----5--9--7-----7-----7-----7--5-|

e|--------------------------|
B|--------------------------| x4
G|--------------------------|
D|--------------------------|
A|-----5-----5-----5-----5--|
E|--3-----3-----3-----3-----|

[Gtr.2]
E|---------------------------------------------------------------------------| 
B|--7-7---10--5h7p5--8-7-8-7--5h7--------------------------------------------| x4
G|------7------------------------7-------------------------------------------|
D|---------------------------------------------------------------------------|
A|---------------------------------------------------------------------------|
E|---------------------------------------------------------------------------|

{Before the Drop]
e|---------------------------------------------------------------------------|
B|---------------------------------------------------------------------------| x3
G|--7--7--7-----10--10--10------7--7--7--------------------------------------|
D|-----------7--------------10-----------7---7--7--7--7----------------------|
A|---------------------------------------------------------------------------|
E|---------------------------------------------------------------------------|

************************************

| h   Hammer-on
| p   Pull-off

************************************

            
            
Suggest correction
Creating personal tab
Creating personal tab
You can edit any tab online and save it as your Personal.

You can edit, replace or remove any tab part or add personal notes – all changes will be seen only by you.

Personal tabs can be accessed anytime from any device, even offline.
Learn more »
Give kudos to tab author, rate the tab!
1 2 3 4 5
comments
print report bad tab
2 comments total.
0 reply
tundralegendz 10 Aug 18, 2017 04:18 AM

Great

0 reply
dieg7sp 10 3 days ago

This is really easy to understand

guest
You may want to rate the tab now too:
select rating
Wanna post a correction for this tab? Suggest correction