Oops, an error
Loading. Please wait.

Le Cose Cambiano Tab

version 1
version 1

Whole song

1,447 views 1 this week
no commentswrite comment
1 2 3 4 5
3 more votes to show rating
add to favorites
launch autoscroll
font size
0
reset
how to read this tab
guitar tuner
Autoscroll
slow
fast
+/-
esc
set tempo
stop
Help us to improve Ultimate-Guitar.com Take our survey!
×
Author
accordatura C# G# C# F# A# D#
verso
primo      secondo      variazione      uscita
-----------|-----------|---------------|-----------|
-----------|-----------|---------------|-----------|
---------0-|---------0-|-------------0-|-----------|
-------0---|4----0-----|-2/4-----0-----|-4/7/2/4---|
-0h3h5-----|-----------|---------------|-----------|
-----------|--0-4--5---|------0-4--5---|-----------|
(n.b. quando fa il 4 sulla terza corda, Mello ci mette una specie di legato -4h5p4p0-,
però è poco rilevante secondo me)

ritornello
------(12)---------------------|
------10-----------------------|
-7----11-----------------------|
-4(7)-9--4/7/2/4---------------|
-5----0------------------------|
-0-----------------------------|

finale
                                              uscita
---------------------------------|-------7---|----------------------|
---------------3---------------7-|--------8--|----7----7----7---8---|
-----------0h2---2-----------7---|---0-------|---7----7----7----8---|
-----0h2h4---------4p0-----0-----|-----------|--0----0----0-----5---|
---0-----------------------------|-----7-----|------------------6---|
-0------------------------5------|-7---------|-7----8----8----------|
Suggest correction
Give kudos to tab author, rate the tab!
1 2 3 4 5
comments
print report bad tab
guest
You may want to rate the tab now too:
select rating
Wanna post a correction for this tab? Suggest correction