Oops, an error
Loading. Please wait.

Ice Cream And Sunscreen tab

by Martha
886 views 39 this week
2 commentsread comments
1 2 3 4 5
x 5
add to favorites
×
Save as Personal and add changes to this tab that will be seen only by you. Learn more ›
×
You can save this tab as Personal to edit and correct it or add notes. All changes will be seen only by you. Learn more »
launch autoscroll
font size
0
reset
how to read this tab
guitar tuner
edit
Autoscroll
slow
fast
+/-
esc
set tempo
stop
Start the song off clean and hit the distortion in the beginning of the second verse! 

[Intro] 
(Just play the E chord a couple of times before the vocals kick in.)
e|-0--0-0--0-0-0|0--0-0--0-0-0--|
B|-0--0-0--0-0-0|0--0-0--0-0-0--|
G|-1--1-1--1-1-1|1--1-1--1-1-1--|
D|-2--2-2--2-2-2|2--2-2--2-2-2--| (x2)
A|-2--2-2--2-2-2|2--2-2--2-2-2--|
E|-0--0-0--0-0-0|0--0-0--0-0-0--|

[Verse]
e|-0-0--0-0--0-0|0-0--0-0--0-0|0-0--0-0--0-0-0|0--0-0--0-0-0--|
B|-0-0--0-0--0-0|0-0--0-0--0-0|0-0--0-0--0-0-0|0--0-0--0-0-0--|
G|-1/6--6-6--6-6|6/8--8-8--8-8|8\1--1-1--1-1-1|1--1-1--1-1-1--|
D|-2/7--7-7--7-7|7/9--9-9--9-9|9\2--2-2--2-2-2|2--2-2--2-2-2--| (x2)
A|-2/7--7-7--7-7|7/9--9-9--9-9|9\2--2-2--2-2-2|2--2-2--2-2-2--|
E|-0/5--5-5--5-5|5/7--7-7--7-7|7\0--0-0--0-0-0|0--0-0--0-0-0--|

e|-0-0--0-0--0-0|0-0--0-0--0-0-0-|-0---0--0-0|0-0--0-0--0-0-0|0--0-0--0-0|0-0--0-0--0-0|0-0--0-0--0-0-0|
B|-0-0--0-0--0-0|0-0--0-0--0-0-0-|-0---0--0-0|0-0--0-0--0-0-0|0--0-0--0-0|0-0--0-0--0-0|0-0--0-0--0-0-0|
G|-1/6--6-6--6-6|6/8--8-8--8-8-8-|-9---9--8-8|8\6--6-6--6-6-6|6--6-6--6-6|6/8--8-8--8-8|8\1--1-1--1-1-1|
D|-2/7--7-7--7-7|7/9--9-9--9-9-9-|-11--11-9-9|9\7--7-7--7-7-7|7--7-7--7-7|7/9--9-9--9-9|9\2--2-2--2-2-2|
A|-2/7--7-7--7-7|7/9--9-9--9-9-9-|-11--11-9-9|9\7--7-7--7-7-7|7--7-7--7-7|7/9--9-9--9-9|9\2--2-2--2-2-2|
E|-0/5--5-5--5-5|5/7--7-7--7-7-7-|-9---9--7-7|7\5--5-5--5-5-5|5--5-5--5-5|5/7--7-7--7-7|7\0--0-0--0-0-0|

[Pre-Chorus]
e|-0--0-0--0-0-0-|0--0-0--0-0|0-0--0-0--0-0|0-0--0-0--0-0-0--|
B|-5--5-5--5-5-5-|0--0-0--0-0|0-0--0-0--0-0|0-0--0-0--0-0-0--|
G|-6--6-6--6-6-6-|3--3-3--3-3|3/6--6-6--6-6|6\1--1-1--1-1-1--|
D|-6--6-6--6-6-6-|4--4-4--4-4|4/7--7-7--7-7|7\2--2-2--2-2-2--|
A|-4--4-4--4-4-4-|4--4-4--4-4|4/7--7-7--7-7|7\2--2-2--2-2-2--|
E|---------------|2--2-2--2-2|2/5--5-5--5-5|5\0--0-0--0-0-0--|

e|-0--0-0--0-0-0-|0--0-0--0-0|0-0--0-0--0-0|0-0--0-0--0-0-0-0--|
B|-5--5-5--5-5-5-|0--0-0--0-0|0-0--0-0--0-0|0-0--0-0--0-0-0-0--|
G|-6--6-6--6-6-6-|3--3-3--3-3|3/6--6-6--6-6|6/8--8-8--8-8-8-8--|
D|-6--6-6--6-6-6-|4--4-4--4-4|4/7--7-7--7-7|7/9--9-9--9-9-9-9--|
A|-4--4-4--4-4-4-|4--4-4--4-4|4/7--7-7--7-7|7/9--9-9--9-9-9-9--|
E|---------------|2--2-2--2-2|2/5--5-5--5-5|5/7--7-7--7-7-7-7--|

[Chorus]
e|-0--0-0--0-0-0-|0--0-0--0-0-0-|0--0-0--0-0|0-0--0-0--0-0-0--|
B|-0--0-0--0-0-0-|5--5-5--5-5-5-|0--0-0--0-0|0-0--0-0--0-0-0--|
G|-1--1-1--1-1-1-|6--6-6--6-6-6-|3--3-3--3-3|3/6--6-6--6-6-6--|
D|-2--2-2--2-2-2-|6--6-6--6-6-6-|4--4-4--4-4|4/7--7-7--7-7-7--|
A|-2--2-2--2-2-2-|4--4-4--4-4-4-|4--4-4--4-4|4/7--7-7--7-7-7--|
E|-0--0-0--0-0-0-|--------------|2--2-2--2-2|2/5--5-5--5-5-5--|

e|-0--0-0--0-0-0-|0--0-0--0-0-0-|0--0-0--0-0|0-0--0-0--0-0|0-0--0-0--0-0|0-0--0-0--0-0|0-0--0-0--0-0-0-|
B|-0--0-0--0-0-0-|5--5-5--5-5-5-|0--0-0--0-0|0-0--0-0--0-0|0-0--0-0--0-0|0-0--0-0--0-0|0-0--0-0--0-0-0-|
G|-1--1-1--1-1-1-|6--6-6--6-6-6-|3--3-3--3-3|3/6--6-6--6-6|6\3--3-3--3-3|3/6--6-6--6-6|6\1--1-1--1-1-1-|
D|-2--2-2--2-2-2-|6--6-6--6-6-6-|4--4-4--4-4|4/7--7-7--7-7|7\4--4-4--4-4|4/7--7-7--7-7|7\2--2-2--2-2-2-|
A|-2--2-2--2-2-2-|4--4-4--4-4-4-|4--4-4--4-4|4/7--7-7--7-7|7\4--4-4--4-4|4/7--7-7--7-7|7\2--2-2--2-2-2-|
E|-0--0-0--0-0-0-|--------------|2--2-2--2-2|2/5--5-5--5-5|5\2--2-2--2-2|2/5--5-5--5-5|5\0--0-0--0-0-0-|

[Verse (Distortion kicks in here)]
e|-0-0--0-0--0-0|0-0--0-0--0-0|0-0--0-0--0-0-0|0--0-0--0-0-0--|
B|-0-0--0-0--0-0|0-0--0-0--0-0|0-0--0-0--0-0-0|0--0-0--0-0-0--|
G|-1/6--6-6--6-6|6/8--8-8--8-8|8\1--1-1--1-1-1|1--1-1--1-1-1--|
D|-2/7--7-7--7-7|7/9--9-9--9-9|9\2--2-2--2-2-2|2--2-2--2-2-2--| (x2)
A|-2/7--7-7--7-7|7/9--9-9--9-9|9\2--2-2--2-2-2|2--2-2--2-2-2--|
E|-0/5--5-5--5-5|5/7--7-7--7-7|7\0--0-0--0-0-0|0--0-0--0-0-0--|

e|-0-0--0-0--0-0|0-0--0-0--0-0-0-|-0---0--0-0|0-0--0-0--0-0-0|0--0-0--0-0|0-0--0-0--0-0|0-0--0-0--0-0-0|
B|-0-0--0-0--0-0|0-0--0-0--0-0-0-|-0---0--0-0|0-0--0-0--0-0-0|0--0-0--0-0|0-0--0-0--0-0|0-0--0-0--0-0-0|
G|-1/6--6-6--6-6|6/8--8-8--8-8-8-|-9---9--8-8|8\6--6-6--6-6-6|6--6-6--6-6|6/8--8-8--8-8|8\1--1-1--1-1-1|
D|-2/7--7-7--7-7|7/9--9-9--9-9-9-|-11--11-9-9|9\7--7-7--7-7-7|7--7-7--7-7|7/9--9-9--9-9|9\2--2-2--2-2-2|
A|-2/7--7-7--7-7|7/9--9-9--9-9-9-|-11--11-9-9|9\7--7-7--7-7-7|7--7-7--7-7|7/9--9-9--9-9|9\2--2-2--2-2-2|
E|-0/5--5-5--5-5|5/7--7-7--7-7-7-|-9---9--7-7|7\5--5-5--5-5-5|5--5-5--5-5|5/7--7-7--7-7|7\0--0-0--0-0-0|

[Pre-Chorus]
e|-0--0-0--0-0-0-|0--0-0--0-0|0-0--0-0--0-0|0-0--0-0--0-0-0--|
B|-5--5-5--5-5-5-|0--0-0--0-0|0-0--0-0--0-0|0-0--0-0--0-0-0--|
G|-6--6-6--6-6-6-|3--3-3--3-3|3/6--6-6--6-6|6\1--1-1--1-1-1--|
D|-6--6-6--6-6-6-|4--4-4--4-4|4/7--7-7--7-7|7\2--2-2--2-2-2--|
A|-4--4-4--4-4-4-|4--4-4--4-4|4/7--7-7--7-7|7\2--2-2--2-2-2--|
E|---------------|2--2-2--2-2|2/5--5-5--5-5|5\0--0-0--0-0-0--|

e|-0--0-0--0-0-0-|0--0-0--0-0|0-0--0-0--0-0|0-0--0--0--0--0--0--0--0-|0---------|
B|-5--5-5--5-5-5-|0--0-0--0-0|0-0--0-0--0-0|0-0--0--0--0--0--0--0--0-|0---------|
G|-6--6-6--6-6-6-|3--3-3--3-3|3/6--6-6--6-6|6/9--9--9--9--9--9--9--9-|9---------|
D|-6--6-6--6-6-6-|4--4-4--4-4|4/7--7-7--7-7|7/10-10-10-10-10-10-10-10|10--------|
A|-4--4-4--4-4-4-|4--4-4--4-4|4/7--7-7--7-7|7/10-10-10-10-10-10-10-10|10--------|
E|---------------|2--2-2--2-2|2/5--5-5--5-5|5/8--8--8--8--8--8--8--8-|8---------|

[Chorus]
e|-0--0-0--0-0-0-|0--0-0--0-0-0-|0--0-0--0-0|0-0--0-0--0-0-0--|
B|-0--0-0--0-0-0-|5--5-5--5-5-5-|0--0-0--0-0|0-0--0-0--0-0-0--|
G|-1--1-1--1-1-1-|6--6-6--6-6-6-|3--3-3--3-3|3/6--6-6--6-6-6--|
D|-2--2-2--2-2-2-|6--6-6--6-6-6-|4--4-4--4-4|4/7--7-7--7-7-7--|
A|-2--2-2--2-2-2-|4--4-4--4-4-4-|4--4-4--4-4|4/7--7-7--7-7-7--|
E|-0--0-0--0-0-0-|--------------|2--2-2--2-2|2/5--5-5--5-5-5--|

e|-0--0-0--0-0-0-|0--0-0--0-0-0-|0--0-0--0-0|0-0--0-0--0-0|0-0--0-0--0-0|0-0--0-0--0-0|0-0--0-0--0-0-0-|
B|-0--0-0--0-0-0-|5--5-5--5-5-5-|0--0-0--0-0|0-0--0-0--0-0|0-0--0-0--0-0|0-0--0-0--0-0|0-0--0-0--0-0-0-|
G|-1--1-1--1-1-1-|6--6-6--6-6-6-|3--3-3--3-3|3/6--6-6--6-6|6\3--3-3--3-3|3/6--6-6--6-6|6\1--1-1--1-1-1-|
D|-2--2-2--2-2-2-|6--6-6--6-6-6-|4--4-4--4-4|4/7--7-7--7-7|7\4--4-4--4-4|4/7--7-7--7-7|7\2--2-2--2-2-2-|
A|-2--2-2--2-2-2-|4--4-4--4-4-4-|4--4-4--4-4|4/7--7-7--7-7|7\4--4-4--4-4|4/7--7-7--7-7|7\2--2-2--2-2-2-|
E|-0--0-0--0-0-0-|--------------|2--2-2--2-2|2/5--5-5--5-5|5\2--2-2--2-2|2/5--5-5--5-5|5\0--0-0--0-0-0-|

Lyrics

The autumn forecast's looking dismal again
This year I'll spend November in the house
August sort of stifled your potential didn't it?
It's coyness boy that caught you out

I know you wish for fireworks to light your July sky
I was the dampest box of matches you could ever hope to find

I'm sorry what? I hear you yeah
I was watching the skin peeling of your sunburnt shoulders, I know
I know you only melt in the middle like ice cream and sunscreen
Blisters in the pit of my heart, blisters in the pit of my heart

Our birthdays came and went unnoticed again
You said you knew my star sign from the start
That late September sunshine leaves me pining for June
December boy you got it wrong

I know you wish for fireworks to light your July sky
I was the dampest box of matches you could ever hope to find

I'm sorry what? I hear you yeah
I was watching the skin peeling of your sunburnt shoulders, I know
I know you only melt in the middle like ice cream and sunscreen
Blisters in the pit of my heart, blisters in the pit of my heart


************************************

| /  Slide up
| \  Slide down

************************************

            
            
Suggest correction
Creating personal tab
Creating personal tab
You can edit any tab online and save it as your Personal.

You can edit, replace or remove any tab part or add personal notes – all changes will be seen only by you.

Personal tabs can be accessed anytime from any device, even offline.
Learn more »
comments
print report bad tab
2 comments total.
0 reply
ScroobiusMike 10 Jan 03, 2017 10:03 PM

literally made an account just to mention how on point this is, thanks for posting

guest
You may want to rate the tab now too:
select rating
Wanna post a correction for this tab? Suggest correction