Oops, an error
Loading. Please wait.

Echo Beach Chords

version 1
version 1

Whole song

Interactive

70,255 views 228 this week
8 commentsread comments
1 2 3 4 5
x 47
add to favorites
launch autoscroll
font size
0
reset
transpose
0
reset
display chords
guitar tuner
backing track
0:00
0:00
×
Best way to learn
"Echo Beach"
Autoscroll
slow
fast
+/-
esc
set tempo
stop
[Intro]

C

   Am           D       C       Am            D       C
e|---------------------------------------------------------------|
B|----1--0-----3----3-------0-------1--0-----3----3-------0------| Repeat
G|---------0--------------0--------------0--------------0--------|
D|-------------0--0--------------------------0--0----------------|
A|-0-------------------3------3^0--------------------3------3^0--|
E|---------------------------------------------------------------|

Am | G | Em | F G | Am | G | Em | F G |


[Verse]

I [Am]know it's out of fashion, [D]and a [C]trifle [Am]uncool,     [D]      [Em]
But [Am]I can't help it, [D]I'm a [C]romantic [Am]fool.      [D]      [Em]
It's a [Am]habit of mine [D]to watch the [C]sun go  [Am]down.     [D]      [Em]
On [Am]Echo Beach, [D]I watch the  [C]sun go [Am]down.     [D]      [Em]


From [G] to five I have to spend my [D]time at work.
My [G]job is very boring I'm an [D]office clerk.
The [Am]only thing that helps me pass the [Em]time away
Is [Am]knowing I'll be back in Echo [Em]Beach some day.
(with saxophone)
F | G | Am | G | Em | F G | Am | G | Em | F G | Am


[Interlude]

   Am           D       C       Am            D       C
e|---------------------------------------------------------------|
B|----1--0-----3----3-------0-------1--0-----3----3-------0------| Repeat
G|---------0--------------0--------------0--------------0--------|
D|-------------0--0--------------------------0--0----------------|
A|-0-------------------3------3^0--------------------3------3^0--|
E|---------------------------------------------------------------|


[Verse]

On [Am]silent summer evenings, [D]the sky's [C]alive with [Am]light.     [D]      [Em]
A [Am]building in the distance - [D]surreal[C]istic [Am]sight.     [D]      [Em]
On [Am]Echo Beach, [D]waves make the [C]only [Am]sound.     [D]      [Em]
On [Am]Echo Beach, [D]there's not A [C]soul A[Am]round.     [D]      [Em]

{C
(with sax)

F | G | Bb | C | F | G | Bb | C
Am | G | Em | F G | Am | G | Em | F G |

Repeat this ad nauseum!

[Am]Echo Beach [G]far away in time, [Em]Echo Beach [F]far away [G]in time
Suggest correction
comments
print report bad tab
8 comments total. Showing first comments.
+4 reply
Salvo 31 Jun 25, 2007 01:58 PM

you must be playing it wrong, this is pretty much perfect

+2 reply
TONE DEFFMAN 10 Nov 21, 2009 10:36 PM

LEENLLAMAS , you must be thinking of a different song...also, if you wish to be taken seriously, spell "wrong" , right.

A good tab. Well done.

0 reply
warnesie 10 Feb 17, 2010 05:46 PM

Yeah, this seems ok to me. Thanks

guest
You may want to rate the tab now too:
select rating
Wanna post a correction for this tab? Suggest correction