Oops, an error
Loading. Please wait.

Echo Beach Tab

version 1
version 1

Solo

  • This is the saxophone solo loosely transcribed for the guitar.

Whole song

Interactive

16 views 1 this week
no commentswrite comment
1 2 3 4 5
3 more votes to show rating
add to favorites
launch autoscroll
font size
0
reset
how to read this tab
guitar tuner
Autoscroll
slow
fast
+/-
esc
set tempo
stop
Help us to improve Ultimate-Guitar.com Take our survey!
×
Author
About this tab version
This is the saxophone solo loosely transcribed for the guitar. Was this info helpful? Yes No
 e|---------------------------------------------------------------------------|
 B|-----------------------------5-7-8-7--5-----5------------------------------|
 G|---7b(9)br7-5-7-----5--------------------7-----7b(9)-7b(9)-7b(9)br7-5------|
 D|------------------7----5-7--------------------------------------------7----|
 A|---------------------------------------------------------------------------|
 E|---------------------------------------------------------------------------|
 
 e|---------------------------------------------------------------------------|
 B|---------------------------------------------------------------------------|
 G|---------------------------------------------------------------------------|
 D|---7--7--5-7-----5---------------------------------------------------------|
 A|-------------------7—5b(7)—5b(7)—5b(7)—5b(7)-------------------------------|
 E|----------------------------------------------8--5-------------------------|



************************************

| (n) Ghost note
| p   Pull-off
| r   Release
| b   Bend
| br  Bend release

************************************
Suggest correction
Give kudos to tab author, rate the tab!
1 2 3 4 5
comments
print report bad tab
guest
You may want to rate the tab now too:
select rating
Wanna post a correction for this tab? Suggest correction