Oops, an error
Loading. Please wait.

Heatwave bass

version 2
version 2

Whole song

2,080 views 3 this week
no commentswrite comment
1 2 3 4 5
2 more votes to show rating
add to favorites
×
Save as Personal and add changes to this tab that will be seen only by you. Learn more ›
×
You can save this tab as Personal to edit and correct it or add notes. All changes will be seen only by you. Learn more »
launch autoscroll
font size
0
reset
guitar tuner
edit
Autoscroll
slow
fast
+/-
esc
set tempo
stop
Author
Difficulty
(Love Is Like A)HEATWAVE
Original artist Martha and the Vandellas. Song writers Holland
Dozier Holland.  Original Bassist James Jamerson. Tab by bass50611
Great dance song but you have really got to listen. J.J. not always
played the same bassline twice.  Play the whole song as walking bass line.
Key is Bb, have fun. Any comments its bass254@btinternet.com

Intro:                         Break
G|---------------------------|--------|----------------------------------|
D|---------------------------|--------|--3-------5-----------------------|
A|-1-1-1-1-1-1-1-1-1-1-1-1-1-|--------|---3--------5-----3-3-3-3-3-3-3-3-|
E|---------------------------|--------|-1---1---3----3-------------------|

G|--------------------------------------------------------------------|
D|--3-------5-------------------------3--------5-------6--------------|
A|---3-------5----3-3-3-3-3-3-3-3----3---3----5---5---6---6---1-1-1-1-|
E|-1---1---3---3--------------------1--------3-------4----------------|
                         (over drum fill)
G|-------------------------------|
D|-1------1------1---------1-----|
A|--3-1----3-1----1-3-1-----3-1--|
E|-----3------3--------3-------3-|

Verse:
G|-----------------------------------------------------------------------|
D|-----------------------------------------------------------------------|
A|---------------1-3-3-3-3---3-3-1-------------------1-3-3-3-3---3-3-1---|
E|-1-0-1-2-3-2-3-------------------3---1-1-1-2-3-3-3-------------------3-|

G|-------------------------------------|
D|-----3--------5--------6-------------|
A|---3---3----5---5----6---6---1-1-1-1-|
E|-1--------3--------4-----------------|

CHORUS:
G|---------------------------------------------------------|
D|-1------1------1------1------1------1------1-------1-----|
A|--3-1----3-1----3-1----3-1----3-1----3-1----1-3-1---3-1--|
E|-----3------3------3------3------3------3--------3-----3-|

Alternative Verse Tab For Mixing and Matching::
G|-----------------------------------------------------------------|
D|-----------------------------------------------------------------|
A|---------------1-3-3-3-3-3-3-1-----------------1-3-3-3-3-3-3-1---|
E|-1-1-1-2-3-3-3-----------------3-1-1-1-2-3-3-3-----------------3-|

G|---------------------------------|
D|---------------------------------|
A|-------------------------1-1-1-1-|
E|-1-1-1-2-3-3-3-3-4-4-4-4---------|

Repeats of Verse & Chorus including Instrumental:

End of Instrumental              End Next Verses:
G|----------                     G|-----------------|
D|-1--------                     D|-1---------1-----|
A|--1-3-1-3-                     A|--1-3-1-3---3-1--|
E|----------                     E|---------------3-|

            
            
Suggest correction
Creating personal tab
Creating personal tab
You can edit any tab online and save it as your Personal.

You can edit, replace or remove any tab part or add personal notes – all changes will be seen only by you.

Personal tabs can be accessed anytime from any device, even offline.
Learn more »
Give kudos to tab author, rate the tab!
1 2 3 4 5
comments
print report bad tab
guest
You may want to rate the tab now too:
select rating
Wanna post a correction for this tab? Suggest correction