Oops, an error
Loading. Please wait.

Tu Chica Ye-Ye Tab

41 views 1 this week
no commentswrite comment
1 2 3 4 5
3 more votes to show rating
add to favorites
launch autoscroll
font size
0
reset
how to read this tab
guitar tuner
×
Best way to learn
"Tu Chica Ye-ye"
Autoscroll
slow
fast
+/-
esc
set tempo
stop
*INTRO TROMPETAS
                  A#
No te quieres enterar
Gm
que te quiero de verdad
D#                    F
no te quieres enterar...

                   A#
No te quieres enterar
yeh yeh,
                     Gm
que te quiero de verdad
yeh yeh yeh yeh,
       D#                 F
y vendras a pedirme de rodillas
      C#             F
un poqui-i-i-to de amor.

                 A#
Pero no te lo dare yeh yeh,
                      Gm
por que no te quiero ver yeh yeh yeh yeh,
        D#
por que tu no haces caso
          F
ni te apiadas
       A#
de mi pobre corazon.

    D#
Tu buscate una chica,
una chica yeh yeh
      F
que tenga mucho ritmo
y que cante en ingles,
              A#          Gm
que tenga el pelo alborota-a-do
       A#         G
y las medias de color
          C
una chica yeh yeh,
una chica yeh yeh
            F
que te compre-e-enda como yo.
                   A#
No te quieres enterar yeh yeh,
                     Gm
que te quiero de verdad yeh yeh yeh yeh
       D#                  F
y vendras a pedirme y a rogarme
     F                         D
y vendras como siempre a suplicarme
     B#      F
que sea tu chica,
     A#       Gm
tu chica yeh yeh
     B#      F       A#  G
que sea tu chica yeh yeh
     B#       F
que sea tu chica,
    A#       Gm
tu chica yeh yeh
     B#      F       A#
que sea tu chica yeh yeh.

**SOLO

    D#
Tu buscate una chica,
una chica yeh yeh
      F
que tenga mucho ritmo
y que cante en ingles,
              A#          Gm
que tenga el pelo alborota-a-do
       A#         G
y las medias de color
          C
una chica yeh yeh,
una chica yeh yeh
            F
que te compre-e-enda como yo.
                   A#
No te quieres enterar yeh yeh,
                     Gm
que te quiero de verdad yeh yeh yeh yeh
       D#                  F
y vendras a pedirme y a rogarme
     F                         D
y vendras como siempre a suplicarme
     B#      F
que sea tu chica,
     A#       Gm
tu chica yeh yeh
     B#      F       A#  G
que sea tu chica yeh yeh
     B#       F
que sea tu chica,
    A#       Gm
tu chica yeh yeh
     B#      F       A#
que sea tu chica yeh yeh.


*INTRO TROMPETAS

     A#
E----6-5----------|
B--6-----8-6-8----|
G--------------7--|
D-----------------|
A-----------------|
E-----------------|
Gm
E----8-6-5---5-6-5----|
B--6-------8-------8--|
G---------------------|
D---------------------|
A---------------------|
E---------------------|


**SOLO

E-------------------------------------------------------|
B-------------------------------------------------------|
G--7-5-7-5---5-7---5/7-5-7-5---5-7----------------------|
D----------8-----------------8--------------------------|
A-------------------------------------------------------|
E-------------------------------------------------------|


E-----------15-----------17--15-------------------------|
B-------------------------------18-16-15----------------|
G--------15-----------17-----------------15-15-17-17-15-|
D--15-17--------15-17-----------------------------------|
A-------------------------------------------------------|
E-------------------------------------------------------|


A esta cancion le faltaba unas cositas asi que ahi les va y disfrutenla
que es una buena rola. Esta va dedicada para mi bb! y ARRIBA LOS MOCHIS!
Suggest correction
Give kudos to tab author, rate the tab!
1 2 3 4 5
comments
print report bad tab
guest
You may want to rate the tab now too:
select rating
Wanna post a correction for this tab? Suggest correction