Oops, an error
Loading. Please wait.

Space tab

2,933 views 1 this week
no commentswrite comment
1 2 3 4 5
3 more votes to show rating
add to favorites
×
Save as Personal and add changes to this tab that will be seen only by you. Learn more ›
×
You can save this tab as Personal to edit and correct it or add notes. All changes will be seen only by you. Learn more »
launch autoscroll
font size
0
reset
how to read this tab
guitar tuner
edit
Autoscroll
slow
fast
+/-
esc
set tempo
stop
Author
Difficulty
http://www.marthatilston.co.uk/

-------------------------------------------------------------------------------
                            Space - Martha Tilston
-------------------------------------------------------------------------------
Tabbed by: Josie Dade & Jamie Wharton
Email:jamiewharton@googlemail.com

Tuning: Standard

Chords: C, Em, Am, G


This is the main line that is repeated through the whole song:

   C         Em        Am
e|---------------------------------------------------------------------------|
B|---1-----1---0-----0---1-1-1-1-1p0-----------------------------------------|
G|-----------------------------------2-----2---------------------------------|
D|-----0h2-------0h2---2---------------0h2-----------------------------------|
A|-3---------2---------------------------------------------------------------|
E|---------------------------------------------------------------------------|


'And if I was a braver me I'd go travelling'

   G                       Am
e|---3-----3-----3-----3-----0-----0-----0-----0-----------------------------|
B|---------------------------------------------------------------------------|
G|-----0-----0-----0-----0-----2-----2-----2-----2---------------------------|
D|-------0-----------0-----------2-----------2-------------------------------|
A|-------------------------0-----------0-------------------------------------|
E|-3-----------3-------------------------------------------------------------|


Middle section:

e|---------------------------------------------------------------------------|
B|---1-1-1-1-1-3-0h1---1-1-1-1-1p0-------------------------------------------|
G|---2-2-2-2-2-2-------2-2-2-2-----2-----2-----------------------------------|
D|-----------------------------------0h2-------------------------------------|
A|-0-----------------0-------------------------------------------------------|
E|---------------------------------------------------------------------------|



Lyrics:

Oh, can anybody feel it?
Heavy's the air it's the coming of April showers
Oh, won't you please move out my way now?
Busy's the street and you're treading on all the flowers

And if I was a braver me I'd go travelling
And dream about it everynight it's unravelling

Space
I need space
I miss space
Send me to space
Just send me to space
Just send me to space

Oh, and everybody feels it
Heavy's the load that we carry around on our backs
Where is everybody rushing to?
Off to the shops to buy all the crap that we like

And if I was a braver me I'd go travelling
And dream about it everynight it's unravelling

Space
I need space
I miss space
Send me to space

Find a place a bigger place
Where we can lie and race the stars in the big black open
And where does it end?
Tell me again you lost me my friend
And now we're back then I was in the big black open
And where does it end?
Tell me again you lost me my friend
And now we're back then I was flying through the big black open
The big black open


Oh, can't anybody feel this?
Heavy's the air it's the coming of April showers
Oh, won't you please move out my way now?
Busy's the street and I'm losing all of my powers

Oh, won't you please move out my way now?
Oh, won't you please move out my way now?
Oh and everybody knows it

Heavy's the air it's the coming of April showers
Heavy's the air it's the coming of April showers
Heavy's the air
Heavy's the air
Heavy's the air it's the coming of April showers



| /  slide up
| \  slide down
| h  hammer-on
| p  pull-off
| ~  vibrato
| +  harmonic
| x  Mute note
===============================================================================

            
            
Suggest correction
Creating personal tab
Creating personal tab
You can edit any tab online and save it as your Personal.

You can edit, replace or remove any tab part or add personal notes – all changes will be seen only by you.

Personal tabs can be accessed anytime from any device, even offline.
Learn more »
Give kudos to tab author, rate the tab!
1 2 3 4 5
comments
print report bad tab
guest
You may want to rate the tab now too:
select rating
Wanna post a correction for this tab? Suggest correction