Oops, an error
Loading. Please wait.

Toy Soldiers solo tab

version 1
version 1

Solo

Interactive

by Martika
542 views 1 this week
no commentswrite comment
1 2 3 4 5
2 more votes to show rating
add to favorites
×
Save as Personal and add changes to this tab that will be seen only by you. Learn more ›
×
You can save this tab as Personal to edit and correct it or add notes. All changes will be seen only by you. Learn more »
launch autoscroll
font size
0
reset
how to read this tab
guitar tuner
edit
Autoscroll
slow
fast
+/-
esc
set tempo
stop
Author
Difficulty
Make sure to transpose the solo half a step up if you're playing the Dm version, 
this is for the normal version which is in C#m

Here's the solo, I haven't seen any tabs of it anywhere around:
             
e|--------------------------------------------------------------------------|
B|--------------------------------------12-----------------------12-16-17---|
G|-------------4s8-9-11-11b13~--b13-b13----11~-----9-11-9s8-----------------|
D|-----------------------------------------------9----------9~-9~-----------|
A|--------------------------------------------------------------------------|
E|--------------------------------------------------------------------------|

e|---------------------------------12-12h14-12-11---------------------------|
B|-19b21~--21b24~---24r21-19~----12----------------12~-12~--12~-------------|
G|--------------------------------------------------------------------------|
D|--------------------------------------------------------------------------|
A|--------------------------------------------------------------------------|
E|--------------------------------------------------------------------------|

You should listen to the song to understand the rhythm of the tab
Please rate and comment if you think there are any mistakes
Cheers :)
Suggest correction
Creating personal tab
Creating personal tab
You can edit any tab online and save it as your Personal.

You can edit, replace or remove any tab part or add personal notes – all changes will be seen only by you.

Personal tabs can be accessed anytime from any device, even offline.
Learn more »
Give kudos to tab author, rate the tab!
1 2 3 4 5
comments
print report bad tab
guest
You may want to rate the tab now too:
select rating
Wanna post a correction for this tab? Suggest correction